Sum 41 - Handle This Chords & Tabs

 

Handle This Chords & Tabs

Sum 41 Chords & Tabs

Version: 1 Type: Tab 0 ratings
1 star 2 stars 3 stars 4 stars 5 stars
comments

Handle This Tab

handle this by sum 41 

intro

guitar 1

e/------------------------------------------------------------
B/------------------------------------------------------------
G/------------------------------------------------------------
D/----22-----77------55------55/4-----------------------------
A/----22-----77------55------55/4-----------------------------
E/----00-----55------33------33/2-----------------------------


guitar 2

e/------------------------------------------------------------
B/------------------------------------------------------------
G/-----11/12/14------11/12/11/9----7-7-7-7-7-----11/12/11-----
D/------x--x--x-------x--x-x-x-----x-x-x-x-x------x-x--x------
A/------9/10/12-------9/10/9/7-----5-5-5-5-5------9/10/9------
E/------------------------------------------------------------

there's no guitar until halfway through the verse

verse
e/------------------------------------------------------------
B/------------------------------------------------------------
G/------------------------------------------------------------
D/------------------------------------------------------------
A/------5555555555555555----7777777777777777------------------
E/--------------------------------------------7777777777777777
        p.m................p.m.....................p.m........

 

e/------------------------------------------------------------
B/------------------------------------------------------------
G/-----------------------11111111---12121212-11111111--9-9-9-9
D/----5-5-5-5-5-5-5-5-----x-x-x-x----x-x-x-x--x-x-x-x--x-x-x-x
A/----5-5-5-5-5-5-5-5-----9-9-9-9---10101010--9-9-9-9--7-7-7-7
E/----3-3-3-3-3-3-3-3-----------------------------------------
      guitar 1 ^^^^^^    guitar 2 ^^^^^^^^

chorus

e/------------------------------------------------------------
B/------------------------------------------------------------
G/-----------------------7-7-7-7------------------------------
D/---9-9-9-9---5-5-5-5---7-7-7-7---7-7-7-7--------------------
A/---9-9-9-9---5-5-5-5---5-5-5-5---7-7-7-7--------------------
E/---7-7-7-7---3-3-3-3-------------5-5-5-5--------------------
        
e/------------------------------------------------------------
B/------------------------------------------------------------
G/-----------------------7-7-7-7------------------------------
D/---2-2-2-2---5-5-5-5---7-7-7-7---7-7-7-7--------------------
A/---2-2-2-2---5-5-5-5---5-5-5-5---7-7-7-7--------------------
E/---0-0-0-0---3-3-3-3-------------5-5-5-5--------------------
        
i don't know the last part of this solo but here it is
[ Tab from: http://www.guitartabs.cc/tabs/s/sum_41/handle_this_tab.html ]
e/---------14----14-14b--------------12--12-14-14b------------
B/---12-15----15--------15----12---15--15----------15---------
G/------------------------------------------------------------
D/------------------------------------------------------------
A/------------------------------------------------------------
E/------------------------------------------------------------

e/------------------------------------------------------------
B/---12---------------------------------------12--------------
G/------14-12---11-12-14-14---11-12-14-14---14--14--12-11-----
D/-------------------------------------------------------14---
A/------------------------------------------------------------
E/------------------------------------------------------------

e/------------------------------------------------------------
B/------------------------------------------------------------
G/----11------------------------------------------------------
D/-------14-12------------------------------------------------
A/------------------------------------------------------------
E/------------------------------------------------------------

bridge
e/------------------------------------------------------------
B/------------------------------------------------------------
G/-----------------------------------------7h9/11-------------
D/---7-7-7-7-7-7-7-7-7-7-7-7-7-7-7-7---55---------------------
A/---7-7-7-7-7-7-7-7-7-7-7-7-7-7-7-7---55---------------------
E/---5-5-5-5-5-5-5-5-5-5-5-5-5-5-5-5---33---------------------

then guitar 2 plays it like this the second time
e/------------------------------------------------------------
B/-----------7h8/10-------------------------------------------
G/------------------------------------------------------------
D/----55------------------------------------------------------
A/----55------------------------------------------------------
E/----33------------------------------------------------------

e/-----------------------------------------------------------------
B/-----------------------------------------------------------------
G/-----------------------------------------------------------------
D/-7-7-7-7-7-7-7-7-7-7-7-7-7-7-7-7--5-5-5-5-5-5-5-5-5-5-5-5-5-5-5-5
A/-7-7-7-7-7-7-7-7-7-7-7-7-7-7-7-7--5-5-5-5-5-5-5-5-5-5-5-5-5-5-5-5
E/-5-5-5-5-5-5-5-5-5-5-5-5-5-5-5-5--3-3-3-3-3-3-3-3-3-3-3-3-3-3-3-3
                                    p.m............................

outro
e/------------------------------------------------------------
B/------------------------------------------------------------
G/--7-7-7-7-7-7-7-7----------------------------------7-7-xx---
D/--7-7-7-7-7-7-7-7--7-7-7-7-7-7-7-7--5-5-xx-5--5-5--7-7-xx-7-
A/--5-5-5-5-5-5-5-5--7-7-7-7-7-7-7-7--5-5-xx-5--5-5--5-5-xx-7-
E/-------------------5-5-5-5-5-5-5-5--3-3-xx-3--3-3---------5-

        
order:
intro 2x
verse
chorus 
intro 2x
verse
chorus 
solo
bridge
chorus 2x
outro 4x

this is my first tab and im pretty sure it's right so.....enjoi
Comments