Sum 41 - Grab The Devil By The Horns Chords & Tabs

 

Grab The Devil By The Horns Chords & Tabs

Sum 41 Chords & Tabs

Version: 5 Type: Tab 0 ratings
1 star 2 stars 3 stars 4 stars 5 stars
comments

Grab The Devil By The Horns Tab

#----------------------------------PLEASE NOTE--------------------------------#
#This file is the author's own work and represents their interpretation of the#
#song. You may only use this file for private study, scholarship, or research.#
#-----------------------------------------------------------------------------#
#-- File created with Instab - http://www.pconline.com/~smcarey/instab.html --#
#-----------------------------------------------------------------------------#

Author/Artist: Sum 41
Title: Grab the devil by his horns and f*ck him up the ass
Album: half hour of power
Transcribed by: Berto deWaardto
Email: hbstuey56@aol.com

I tabbed this song otu because it sounds very similar to metallica, specifically "four horsemen"

 Standard tuning, blah blah blah.

--------7---------------7---------------7---------------7---------------------|
-7-9-10---10-9-7-7-9-10---10-9-7-7-9-10---10-9-7-7-9-10---10-9-7-7-9-10-------|
------------------------------------------------------------------------------|
------------------------------------------------------------------------------|
------------------------------------------------------------------------------|
----------------------------------------------------------^-------------------|
 riff 1                                      guitar 2 plays octaves

---------------|--------------------------------------------------------------|
---------------|--------------------------------------------------------------|
-------4-------|--------------------------------------------------------------|
-5-4-2-2-4-5-2-|-9----------------7----------------5--------------------------|
-3-2-0---2-3-0-|-7-777-777-777-77-5-555-555-555-55-3-333-333-333-33-----------|
---------------|--------------------------------------------------------------|
                 pm... ... ... ..   ... ... ... ..   ... ... ... ..
[ Tab from: http://www.guitartabs.cc/tabs/s/sum_41/grab_the_devil_by_the_horns_tab_ver_5.html ]
------------------------------------------------------------------------------|
------------------------------------------------------------------------------|
-------4----------------------------------------------------------------------|
-5-4-2-2-4-5-2--9----------------7----------------5---------------------------|
-3-2-0---2-3-0--7-777-777-777-77-5-555-555-555-55-3-333-333-333-33------------|
------------------------------------------------------------------------------|
                 played the same as first time except guitar 2 does octaves

------------------------------------------------------------------------------|
------------------------------------------------------------------------------|
-------4----------------------------------------------------------------------|
-5-4-2-2-4-5-2--9----------------7----------------5---------------------------|
-3-2-0---2-3-0--7-777-777-777-77-5-555-555-555-55-3-333-333-333-33------------|
------------------------------------------------------------------------------|
                played with riff 1 on guitar 2 instead of octaves

--------------|---------------------------------------------------------------|
--------------|---------------------------------------------------------------|
-------4------|------------4---------9-----9-----9-----9-----9-----9----------|
-5-4-2-2-4-5-2|--------5-4-4-4-------9-----9-----9-----9-----9-----9----------|
-3-2-0---2-3-0|--------5-4-2-4-------7-----7-----7-----7-----7-----7----------|
--------------|--------3-2---2---000---000---000---000---000---000------------|
               YEAH!!!!        pm...   ...   ...   ...   ...   ...play twice

------------------------------------------------------------------------------|
------------------------------------------------------------------------------|
-----4--------9-----9-----9-x-9-7-----9-----9-------4-------------------------|
-5-4-4-4------9-----9-----9-x-9-7-----9-----9---5-4-4-4-2---------------------|
-5-4-2-4--777-7-777-7-777-7---7-5-----7-----7---5-4-2-4-2---------------------|
-3-2---2--------------------------000---000-----3-2---2-0---------------------|
      pm  ...   ...   ...         ...   ...               letit ring out
Comments