Sum 41 - Grab The Devil By The Horns And Fuck Him Up The As Chords & Tabs

 

Grab The Devil By The Horns And Fuck Him Up The As Chords & Tabs

Sum 41 Chords & Tabs

Version: 1 Type: Tab 0 ratings
1 star 2 stars 3 stars 4 stars 5 stars
comments

Grab The Devil By The Horns And Fuck Him Up The As Tab

Grab the Devil by the Horns and Fuck Him Up the Ass
Sum 41
Half Hour of Power


e ---2-3-5-3-2----------2-3-5-3-2-----
b -5-------------5-3--5--------------5-3		Guitar one plays 3 1/2 times
g -----------------------------------------		
d -----------------------------------------
a -----------------------------------------
e -----------------------------------------

e -7-5-7-8-7-5--------7-5-7-8-7-5----
b ----------------8-7-----------------8-7		Guitar two plays 1 1/2 times
g -----------------------------------------		
d -----------------------------------------
a -----------------------------------------
e -----------------------------------------

e -----------------------------------------
b -----------------------------------------		Guitar one plays once
g -----------------------------------------
d -----------------------------------------
a ---------2-------------------------------
e -3-2-0----2-3--------------------------

e ---------7-------------------------------
b -8-7-5----7-8--------------------------		Guitar two plays once
g -----------------------------------------
d -----------------------------------------
a -----------------------------------------
e -----------------------------------------

    [Palm muted..............................................................]
e [---------------------------------------------------------------]---------------- e -
b [---------------------------------------------------------------]---------------- b -	G-1 plays 4X
g [---------------------------------------------------------------]---------------- g -
d [9--------------------7-------------------5--------------------]---------------- d -2
a [7-777-777-777-7-5-555-555-555-5-3-333-333-333-3]--------2-------- a -2
e [---------------------------------------------------------------]3-2-0----2-3--- e -0




[ Tab from: http://www.guitartabs.cc/tabs/s/sum_41/grab_the_devil_by_the_horns_and_fuck_him_up_the_as_tab.html ]
    [Palm muted.......................................]
e [-----------------------------------------------]-------------------------7-------
b [-----------------------------------------------]-----------------8-7-5----7-8--	G-2  plays 2X
g [-----------------------------------------------]---------------------------------
d [-9--------------------7--------------------5-]----------------------------------
a [-7--------------------5--------------------3-]----------------------------------
e [----------------------------------------------]-----------------------------------


e ---2-3-5-3-2----------2-3-5-3-2----------2-3-5-3-2---------------7-------
b -5-------------5-3--5--------------5-3--5--------------5-3--8-7-5----7-8--	G-2 plays 2X
g ---------------------------------------------------------------------------------
d ---------------------------------------------------------------------------------
a ---------------------------------------------------------------------------------
e ---------------------------------------------------------------------------------

   [    once   ][Palm muted..... played 2X...........................]
e ------------[--------------------------------------------------------------------]
b ------------[--------------------------------------------------------------------]	G-1 plays 2X
g ------------[--------------------------------------------------------------------]
d ------------[--------------------------------------------------------------------]
a ------2----[------2-------2-------2--------2-------2-------2---------2-------]
e -3-2----3-[000-0--000-0--000-0--000-0--000-0--000-0---3-2----3-----]


e -----------------------------------------------------			  e ------
b -----------------------------------------------------	played 2X then  b ------
g -----------------------------------------------------			  g ------
d -----5------5-------5-5-4------5------5-----------			  d -2---
a -------------------------------------------------2---			  a -2---
e -000---000---000---------000---000---3-2---3-			  e -0---

And that’s it.  I feel it’s accurate, however, I see how I may make it look confusing, it looked alright in word processing form, but if you play with the song, it’s easy.  If you have any comments or concerns, please keep them to yourself.
Comments