Sum 41 - Fatlip Complete Chords & Tabs

 

Fatlip Complete Chords & Tabs

Sum 41 Chords & Tabs

Version: 1 Type: Tab 3 ratings
1 star 2 stars 3 stars 4 stars 5 stars
comments

Fatlip Complete Tab

SONG: FAT LIP
BAND: SUM 41
TABBER: -=[BoomeR]=- Sherwin Villareal

Hey punkers just play this im 101% sure that this is right...
derrick himself teach me this tab...

INTRO: X2
Guitar 1
e-------------------------------------------------------------
b-------------------------------------------------------------
g-------------------------------------------------------------
d--------6-------4-------6-------4-2--------------------------
a-------------------------------------------------------------
E--4-5-7---4-5-7---4-5-7---4-5-7------------------------------


Guitar 1 X2                   Guitar 2 X2
e----------------------------|----------------------------------
b----------------------------|----------------------------------
g----------------------------|----------------------------------
d---72-6-72-4-72-6-72-4-2----|--72-2-72-7-----------------------
a---72---72---72---72--------|--72-2-72-7-----------------------
E--050---50---50---50--------|--50-0-50-5-----------------------


VERSE PART 1:
Guitar 1 X2                    Guitar 2 X1 (play this the second time)
e----------------------------|----------------------------------
b----------------------------|----------------------------------
g-------44-------------------|----989-------989-----------------
d-2-212-44-77-212------------|-22-xxx-99-77-xxx-7-6-4-----------
a-2-----22-77-----0----------|-22-767-99-77-767-7-6-4-----------
E-0--------55-------4-2------|-00-----77-55-----5-4-2-----------


VERSE PART 2:
Guitar 1 X2                               Guitar 2                    
e---------------------------------------|-------------------------------------------
b---------------------------------------|-------------------------------------------
g-----------------666-666---------------|-------------------------------------------
d-222-222-222-222-666-666-777-777-------|----------------7--------------------------
a-222-222-222-222-444-444-777-777-------|----------------7--------------------------
E-000-000-000-000---------555-555-------|--pick slide to-5-when needed--------------
pm..  ..  ..  ..  ..  ..  ..  ..

  
CHORUS:
Guitar 1 and 2 X2
e------------------------------------------------------------------------------
b------------------------------------------------------------------------------
g-99----6666-------------------------------------------------------------------
d-99-99-6666-66-77-66-77-----------------------------------------------------------
a-77-99-4444-66-77-66-77-----------------------------------------------------------
E----77------44-55-44-55-----------------------------------------------------------

(REPEAT INTRO)
(REPEAT VERSE 1 & 2) 

CHORUS:
[ Tab from: http://www.guitartabs.cc/tabs/s/sum_41/fatlip_complete_tab.html ]
INTERLUDE:
Guitar 1
e------------------------------------------------------------------------------
b------------------------------------------------------------------------------
g-------------------------2----------------------------------------------------
d-22-x-22-xx-2-22-x-22-xx-2-22-x-22-xx-2-22-x-22-------------------------------
a-22-x-22-xx-2-22-x-22-xx-0-22-x-22-xx-2-22-x-22-------------------------------
E-00-x-00-xx-0-00-x-00-xx---00-x-00-xx-0-00-x-00-------------------------------
Guitar 1 :
e-------------------|------------------|-------------------|---------------------|
b-------------------|-----5------------|-------------------|-----5---------------|
g------9--------9---|------------------|------9--------9---|---------------------|
d----9---9----9---9-|---6---6----------|----9---9----9---9-|---6---6-------------|
a--7--------6-------|-4------------5---|--7--------6-------|-4------------5------|
D-------------------|----------x-7---7-|-------------------|----------x-7---7----|
Guitar 2 :
e--0---0----2---2---|-0---0------0-----|--0---0----2---2---|-0---0-----0---------|
b----0---0----0---0-|---0---0h2----2-0-|----0---0----0---0-|---0---0h2-----------|
g-------------------|------------------|-------------------|-----------------0-0-|
d-------------------|------------------|-------------------|-------------/x-0-0-|
a-------------------|------------------|-------------------|-------------/x-0-0-|
D-------------------|------------------|-------------------|-------------/x-0-0-|

Guitar 1 and 2
e----------------------------------------------------------------------------------
b----------------------------------------------------------------------------------
g----------------------------------------------------------------------------------
d-722-727-722-727---------722-727-722-72--72--727-722-727---------22222222-77777777
a-722-727-722-727--pause--722-727-722-72--72--727-722-727--pause--22222222-77777777
E-500-505-500-505---------500-505-500-50--50--505-500-505---------00000000-55555555
pm                                                                ........ ....

LAST BIT:
Guitar 1 X2                   Guitar 2 X2
e----------------------------|----------------------------------
b----------------------------|----------------------------------
g----------------------------|----------------------------------
d---72-6-72-4-72-6-72-4-2----|--72-2-72-7-----------------------
a---72---72---72---72--------|--72-2-72-7-----------------------
E--050---50---50---50--------|--50-0-50-5-----------------------

Both Guitars
e-------------------------------------------------------------
b-------------------------------------------------------------
g-------------------------------------------------------------
d-22-22-------------------------------------------------------
a-22-22-------------------------------------------------------
E-00-00-------------------------------------------------------

Comments