Sum 41 - Fat Lip Chords & Tabs

 

Fat Lip Chords & Tabs

Sum 41 Chords & Tabs

Version: 7 Type: Tab 0 ratings
1 star 2 stars 3 stars 4 stars 5 stars
comments

Fat Lip Tab

Author/Artist: Sum 41
Title: Fat Lip
Album: All Killer No Filler
Transcribed by: Dustin Pryor
Email: incubus2988@home.com

This is how i was tought how to play it, and it sounds perfect to me, and its simple. i just started playing guitar about 2 months ago, so if i can play it, you can.

/ means slide
x means palm mute     
[ Tab from: http://www.guitartabs.cc/tabs/s/sum_41/fat_lip_tab_ver_7.html ]
e|---------------------------------------------------------------------
B|---------------------------------------------------------------------
G|---------------------------------------------------------------------
D|------------6-----------4-----------6-----------4-2------------------
A|---------------------------------------------------------------------
E|---4--5--7-----4--5--7-----4--5--7-----4--5--7-----------------------
            Play 4 times
e|---------------------------------------------------------------------
B|---------------------------------------------------------------------
G|---------------------------------------------------------------------
D|--------2-1-2---------2-2---2-1-2------------------------------------
A|--2-2----------2--2---0-0----------0---------------------------------
E|--0-0----------------------------------4--2--------------------------
               Play 2 times
e|---------------------------------------------------------------------
B|---------------------------------------------------------------------
G|---------------------------------------------------------------------
D|----------------------------------6x-6x-6-6x-6x-6--------------------
A|--2x-2x-2-2x-2x-2-2x-2x-2-2x-2x-2-4x-4x-4-4x-4x-4-7x-7x-7-7x-7x-7----
E|--0x-0x-0-0x-0x-0-0x-0x-0-0x-0x-0-----------------5x-5x-5-5x-5x-5----
                   Play 2 times
e|---------------------------------------------------------------------
B|---------------------------------------------------------------------
G|---------------------------------------------------------------------
D|--9-9----------------------------------------------------------------
A|--7-7--9-9--11-11--6-6--7-7--6-6--7-7--------------------------------
E|-------7-7---9--9--4-4--5-5--4-4--5-5--------------------------------
           Play 2 times
e|---------------------------------------------------------------------
B|---------------------------------------------------------------------
G|---------------------------------------------------------------------
D|------------6-----------4-----------6-----------4-2------------------
A|---------------------------------------------------------------------
E|---4--5--7-----4--5--7-----4--5--7-----4--5--7-----------------------
          Play 2 times
e|---------------------------------------------------------------------
B|---------------------------------------------------------------------
G|---------------------------------------------------------------------
D|--------2-1-2---------2-2---2-1-2------------------------------------
A|--2-2----------2--2---0-0----------0---------------------------------
E|--0-0----------------------------------4--2--------------------------
           Play 2 times
e|---------------------------------------------------------------------
B|---------------------------------------------------------------------
G|---------------------------------------------------------------------
D|----------------------------------6x-6x-6-6x-6x-6--------------------
A|--2x-2x-2-2x-2x-2-2x-2x-2-2x-2x-2-4x-4x-4-4x-4x-4-7x-7x-7-7x-7x-7----
E|--0x-0x-0-0x-0x-0-0x-0x-0-0x-0x-0-----------------5x-5x-5-5x-5x-5----
              Play 2 times
e|---------------------------------------------------------------------
B|---------------------------------------------------------------------
G|---------------------------------------------------------------------
D|--9-9----------------------------------------------------------------
A|--7-7--9-9--11-11--6-6--7-7--6-6--7-7--------------------------------
E|-------7-7---9--9--4-4--5-5--4-4--5-5--------------------------------
           Play 2 times
e|---------------------------------------------------------------------
B|---------------------------------------------------------------------
G|-------------------------------2-------------------------------------
D|-------------------------------2-------------------------------------
A|--2-2---2-2---2-2---2-2---2-2----------------------------------------
E|--0-0---0-0---0-0---0-0---0-0----------------------------------------
Play 2 times
e|---------------------------------------------------------------------
B|--------------------------------5------------------------------------
G|--------9-----------9------------------------------------------------
D|-----9-----9-----9-----9-----6-----6-----2---------------------------
A|--7-----------6-----------4-----------0-----0------------------------
E|---------------------------------------------------------------------
      Play 4 times
e|----------------------|----------------------------------------------
B|----------------------|----------------------------------------------
G|----------------------|----------------------------------------------
D|--7/9-9-9--7/9-9-14---|--9-9-----------------------------------------
A|--5/7-7-7--5/7-7-12---|--7-7--9-9--11-11--6-6--7-7--6-6--7-7---------
E|----------------------|-------7-7---9--9--4-4--5-5--4-4--5-5---------
     Play 5 times            Play 4 times

e|----------------------------------------------------|----------------
B|----------------------------------------------------|----------------
G|----------------------------------------------------|----------------
D|------------6-----------4-----------6-----------4-2-|----------------
A|----------------------------------------------------|-2-2--2-2-------
E|---4--5--7-----4--5--7-----4--5--7-----4--5--7------|-0-0--0-0-------
         Play 2 times       

Comments