Sum 41 - Fat Lip Chords & Tabs

 

Fat Lip Chords & Tabs

Sum 41 Chords & Tabs

Version: 6 Type: Tab 0 ratings
1 star 2 stars 3 stars 4 stars 5 stars
comments

Fat Lip Tab

-----------------
Sum 41 - Fat Lip. (The right way)
-----------------

Tabbed By James Banks
tabmiester@hotmail.com

Just to let everyone know, I am a perfectionist when it comes to 
learning a song. I am fairly confident that these tabs are the most 
accurate you can get. All the tabs for this song that I've read 
are not right. I'm assuming you have all listened to the song before
so the timing isn't extremely accurate. Hope my tabs help. Email me 
with your thoughts about my tabs


PM= Palm Muted

Intro 1st half:  X2


PM:

E|-------------------------------------------------------------------------|
B|-------------------------------------------------------------------------|
G|-------------------------------------------------------------------------|
D|-------------6-------------4----------------6--------------4-------------|
A|--------------------------------------------------------------6----------|
E|---4--5--7--------4--5--7----------4--5--7--------4--5--7----------------|

Intro 2nd Half  X2

E|-------------------------------------------------------------------------|
B|-------------------------------------------------------------------------|
G|-------------------------------------------------------------------------|
D|-------------6-------------4----------------6--------------4-------------|
A|--------------------------------------------------------------6----------|
E|---4--5--7--------4--5--7----------4--5--7--------4--5--7----------------|


Verse 1    X2    "Stormin' through the party..."


E|-------------------------------------------------------------------|
B|-------------------------------------------------------------------|
G|-------------------------------------------------------------------|
D|-------------------------------------------------------------------|
A|---2--2----7--6--7---9--9-----7--7----7--6--7----------------------|
E|---0--0--------------7--7-----5--5--------------5--4--2------------|



Pre-Chorus 1    X2      "Well, I know I'm not the one..."


E|-------------------------------------------------------------------------|
B|-------------------------------------------------------------------------|
G|-------------------------------------------------------------------------|
D|--------------------------------------X--X--6--X--X--6-------------------|
A|--X--X--2--X--X--2--X--X--2--X--X--2--X--X--4--X--X--4--X--X--7--X--X--7-|
E|--X--X--0--X--X--0--X--X--0--X--X--0--------------------X--X--5--X--X--5-|

Chorus          X2         "I don't wanna waste my time..."

E|-------------------------------------------------------------------------|
B|-------------------------------------------------------------------------|
G|-------------------------------------------------------------------------|
D|--6--X-------------------------------------------------------------------|
A|--7--X-----6--6--X-----7--7--7--7--7--7----6--7--7--6--6--7--7-----------|
E|-----------7--7--X-----9--9--9--9--9--9----4--5--5--4--4--5--5-----------|


Back to intro    X2


E|-------------------------------------------------------------------------|
B|-------------------------------------------------------------------------|
G|-------------------------------------------------------------------------|
D|-------------6-------------4----------------6--------------4-------------|
A|--------------------------------------------------------------6----------|
E|---4--5--7--------4--5--7----------4--5--7--------4--5--7----------------|


           * Pause for drum intro *


Verse 2     X2     "...know us at all, we laugh when old people fall..."


E|-------------------------------------------------------------------|
B|-------------------------------------------------------------------|
G|-------------------------------------------------------------------|
D|-------------------------------------------------------------------|
A|---2--2----7--6--7---9--9-----7--7----7--6--7----------------------|
E|---0--0--------------7--7-----5--5--------------5--4--2------------|

Pre-Chorus 2    X2     "We like having fun at other people's expense ..."

[ Tab from: http://www.guitartabs.cc/tabs/s/sum_41/fat_lip_tab_ver_6.html ]
E|-------------------------------------------------------------------------|
B|-------------------------------------------------------------------------|
G|-------------------------------------------------------------------------|
D|--------------------------------------X--X--6--X--X--6-------------------|
A|--X--X--2--X--X--2--X--X--2--X--X--2--X--X--4--X--X--4--X--X--7--X--X--7-|
E|--X--X--0--X--X--0--X--X--0--X--X--0--------------------X--X--5--X--X--5-|


Chorus          X2         "I don't wanna waste my time..."


E|-------------------------------------------------------------------------|
B|-------------------------------------------------------------------------|
G|-------------------------------------------------------------------------|
D|--6--X-------------------------------------------------------------------|
A|--7--X-----6--6--X-----7--7--7--7--7--7----6--7--7--6--6--7--7-----------|
E|-----------7--7--X-----9--9--9--9--9--9----4--5--5--4--4--5--5-----------|


Post Chorus         X2      "Back down!"


E|-------------------------------------------------------------------------|
B|-------------------------------------------------------------------------|
G|-------------------------------------------------------------------------|
D|----------------------------------------------2--------------------------|
A|---2--2--X--2--2--X--2--2-----2--2--X--2--2---0--------------------------|
E|---0--0--X--0--0--X--0--0-----0--0--X--0--0------------------------------|

Solo         X2           "Don't count on me..."

E|-------------------------------------------------------------------------|
B|-------------------------------------------------------------------------|
G|---------9----------9-----------6-----------2----------------------------|
D|------9----9-----9----9------6-----6-----2-------------------------------|
A|---7----------6-----------4-----------0----------------------------------|
E|-------------------------------------------------------------------------|

This next part is supposed to be played in drop D, but I had to alter
It to match the rest of the song.

The timing is kinda weird, but if you listen to the song, you can 
Probably figure it out.

Break                     "Well I'm a..."


E|-------------------------------------------------------------------------|
B|-------------------------------------------------------------------------|
G|-------------------------------9-----------------------------------------|
D|---7---9---9-------9---7---9---7-----------------------------------------|
A|---5---7---7-------7---5---7---------------------------------------------|
E|-------------------------------------------------------------------------|

Pre Chorus       X1

E|-------------------------------------------------------------------------|
B|-------------------------------------------------------------------------|
G|-------------------------------------------------------------------------|
D|---7--7--7--7--7--7--7--7--7--7--7--7--7---------------------------------|
A|---5--5--5--5--5--5--5--5--5--5--5--5--5---------------------------------|
E|-------------------------------------------------------------------------|


Chorus       X4        "I don't wanna waste my time..."


E|-------------------------------------------------------------------------|
B|-------------------------------------------------------------------------|
G|-------------------------------------------------------------------------|
D|--6--X-------------------------------------------------------------------|
A|--7--X-----6--6--X-----7--7--7--7--7--7----6--7--7--6--6--7--7-----------|
E|-----------7--7--X-----9--9--9--9--9--9----4--5--5--4--4--5--5-----------|

Outro           X2


E|-------------------------------------------------------------------------|
B|-------------------------------------------------------------------------|
G|-------------------------------------------------------------------------|
D|-------------6-------------4----------------6--------------4-------------|
A|--------------------------------------------------------------6----------|
E|---4--5--7--------4--5--7----------4--5--7--------4--5--7----------------|

End  (GASP!)      X1


E|-------------------------------------------------------------------------|
B|-------------------------------------------------------------------------|
G|-------------------------------------------------------------------------|
D|-------------------------------------------------------------------------|
A|----2---2----------2---2-------------------------------------------------|
E|----0---0----X-----0---0-------------------------------------------------|

Comments