Sum 41 - Fat Lip Chords & Tabs

 

Fat Lip Chords & Tabs

Sum 41 Chords & Tabs

Version: 4 Type: Tab 11 ratings
1 star 2 stars 3 stars 4 stars 5 stars
comments

Fat Lip Tab

Artist:Sum 41  
Song:Fat Lip 500% Correct
Tabber:Justin M

  E |-------------------------------|----------------------------------|
  B |-------------------------------|----------------------------------|
  G |--------1----------------------|--------1-------------------------|
  D |------------------4------------|-------------------4-2------------| 2X
  A |-0-1-2----0-1-2----------------|-0-1-2-----0-1-2------------------|
  E |-------------------------------|----------------------------------|
  Pm  . . .    . . .                  . . .     . . .
  E |-------------------------------|----------------------------------|
  B |-------------------------------|----------------------------------|
  G |--------1----------------------|--------1-------------------------|
  D |------------------4------------|-------------------4-2------------| 2X
  A |-0-1-2----0-1-2----------------|-0-1-2-----0-1-2------------------|
  E |-------------------------------|----------------------------------|
  
  E |-------------------------------|----------------------------------|
  B |-------------------------------|----------------------------------|
  G |-------------------------------|----------------------------------|
  D |------2-1-2-----2-2-2-1-2------|------2-1-2-----2-2-2-1-2---------|
  A |--2-2-------2-2-0-0-------0----|--2-2-------2-2-0-0-------0-------|
  E |--0-0-----------------------4-2|--0-0-----------------------4-2---|

  E |-------------------------------|----------------------------------|
  B |-------------------------------|----------------------------------|
  G |-------------------------------|----------------------------------|
  D |------2-1-2-----2-2-2-1-2------|------2-1-2-----2-2-2-1-2---------|
  A |--2-2-------2-2-0-0-------0----|--2-2-------2-2-0-0-------0-------|
  E |--0-0-----------------------4-2|--0-0-----------------------4-2---|

  E |---------------------------------|----------------------------------|
  B |---------------------------------|----------------------------------|
  G |---------------------------------|----------------------------------|
  D |---------------------------------|-6x-6x-6-6x-6x-6------------------|
  A |-2x-2x-2-2x-2x-2-2x-2x-2-2x-2x-2-|-4x-4x-4-4x-4x-4-7x-7x-7-7x-7x-7--|
  E |-0x-0x-0-0x-0x-0-0x-0x-0-0x-0x-0-|-----------------5x-5x-5-5x-5x-5--|

  E |---------------------------------|----------------------------------|
  B |---------------------------------|----------------------------------|
  G |---------------------------------|----------------------------------|
  D |---------------------------------|-6x-6x-6-6x-6x-6------------------|
  A |-2x-2x-2-2x-2x-2-2x-2x-2-2x-2x-2-|-4x-4x-4-4x-4x-4-7x-7x-7-7x-7x-7--|
  E |-0x-0x-0-0x-0x-0-0x-0x-0-0x-0x-0-|-----------------5x-5x-5-5x-5x-5--|


  E |---------------------------------|----------------------------------|
  B |---------------------------------|----------------------------------|
  G |---------------------------------|----------------------------------|
  D |--9-9----------------------------|--9-9-----------------------------|
  A |--7-7-9-9-11-11-6-6-7-7-6-6-7-7--|--7-7-9-9-11-11-6-6-7-7-6-6-7-7---|
  E |------7-7--9--9-4-4-5-5-4-4-5-5--|------7-7--9--9-4-4-5-5-4-4-5-5---|
[ Tab from: http://www.guitartabs.cc/tabs/s/sum_41/fat_lip_tab_ver_4.html ]
  E |-------------------------------|----------------------------------|
  B |-------------------------------|----------------------------------|
  G |-------------------------------|----------------------------------|
  D |------------6-----------4------|-----------6----------4--2--------|
  A |-------------------------------|----------------------------------|
  E |--4--5--6------4--5--6---------|--4--5--6-----4--5--6-------------|

  E |-------------------------------|----------------------------------|
  B |-------------------------------|----------------------------------|
  G |-------------------------------|----------------------------------|
  D |------------6-----------4------|-----------6----------4--2--------|
  A |-------------------------------|----------------------------------|
  E |--4--5--6------4--5--6---------|--4--5--6-----4--5--6-------------|

  E |-------------------------------|----------------------------------|
  B |-------------------------------|----------------------------------|
  G |-------------------------------|----------------------------------|
  D |------2-1-2-----2-2-2-1-2------|------2-1-2-----2-2-2-1-2---------|
  A |--2-2-------2-2-0-0-------0----|--2-2-------2-2-0-0-------0-------|
  E |--0-0-----------------------4-2|--0-0-----------------------4-2---|

  E |-------------------------------|----------------------------------|
  B |-------------------------------|----------------------------------|
  G |-------------------------------|----------------------------------|
  D |------2-1-2-----2-2-2-1-2------|------2-1-2-----2-2-2-1-2---------|
  A |--2-2-------2-2-0-0-------0----|--2-2-------2-2-0-0-------0-------|
  E |--0-0-----------------------4-2|--0-0-----------------------4-2---|

  E |---------------------------------|----------------------------------|
  B |---------------------------------|----------------------------------|
  G |---------------------------------|----------------------------------|
  D |---------------------------------|-6x-6x-6-6x-6x-6------------------|
  A |-2x-2x-2-2x-2x-2-2x-2x-2-2x-2x-2-|-4x-4x-4-4x-4x-4-7x-7x-7-7x-7x-7--|
  E |-0x-0x-0-0x-0x-0-0x-0x-0-0x-0x-0-|-----------------5x-5x-5-5x-5x-5--|

  E |---------------------------------|----------------------------------|
  B |---------------------------------|----------------------------------|
  G |---------------------------------|----------------------------------|
  D |---------------------------------|-6x-6x-6-6x-6x-6------------------|
  A |-2x-2x-2-2x-2x-2-2x-2x-2-2x-2x-2-|-4x-4x-4-4x-4x-4-7x-7x-7-7x-7x-7--|
  E |-0x-0x-0-0x-0x-0-0x-0x-0-0x-0x-0-|-----------------5x-5x-5-5x-5x-5--|


  E |---------------------------------|----------------------------------|
  B |---------------------------------|----------------------------------|
  G |---------------------------------|----------------------------------|
  D |--9-9----------------------------|--9-9-----------------------------|
  A |--7-7-9-9-11-11-6-6-7-7-6-6-7-7--|--7-7-9-9-11-11-6-6-7-7-6-6-7-7---|
  E |------7-7--9--9-4-4-5-5-4-4-5-5--|------7-7--9--9-4-4-5-5-4-4-5-5---|

  E |---------------------------------|----------------------------------|
  B |---------------------------------|----------------------------------|
  G |-----------------------------2---|-----------------------------2----|
  D |-----------------------------2---|-----------------------------2----|
  A |-2-2---2-2---2-2---2-2---2-2-----|-2-2---2-2---2-2---2-2---2-2------|
  E |-0-0---0-0---0-0---0-0---0-0-----|-0-0---0-0---0-0---0-0---0-0------|


i don't know the solo yet but just figer-out what to end the song with.
Comments