Sum 41 - Fat Lip Chords & Tabs

 

Fat Lip Chords & Tabs

Sum 41 Chords & Tabs

Version: 3 Type: Tab 6 ratings
1 star 2 stars 3 stars 4 stars 5 stars
comments

Fat Lip Tab

The song is done in drop d tuning 

 intro                                                                       repeat 4 times
--------------------------------------------------------------------------------
--------------------------------------------------------------------------------
--------------------------------------------------------------------------------
---------------6-------------------------------6--------------------------------
-------------------------------9-------------------------------9---7------------
---6---7---9-------6---7---9-------6---7---9-------6---7---9--------------------

                                        repeat twice
--------------------------------------------------------------------------------
--------------------------------------------------------------------------------
----------------4-4---2-2-------------------------------------------------------
---2-2---2p-1-2-4-4---2-2---2p-1-2----------------------------------------------
---2-2----------2-2---0-0-----------0-------------------------------------------
---2-2---------------------------------6--4-------------------------------------

                                                            repeat twice
--------------------------------------------------------------------------------
--------------------------------------------------------------------------------
--------------------------------------------------------------------------------
--2-2-2--2-2-2--2-2-2--2-2-2--6-6-6--6-6-6--2-2-2--2-2-2------------------------
--2-2-2--2-2-2--2-2-2--2-2-2--6-6-6--6-6-6--2-2-2--2-2-2------------------------
--2-2-2--2-2-2--2-2-2--2-2-2--4-4-4--4-4-4--0-0-0--0-0-0------------------------

[ Tab from: http://www.guitartabs.cc/tabs/s/sum_41/fat_lip_tab_ver_3.html ]
                                                          repeat twice
--------------------------------------------------------------------------------
---------5--5-5-5-5-5-----------------------------------------------------------
--9--9---6--6-6-6-6-6-----------------------------------------------------------
--9--9---6--6-6-6-6-6---6-7-7--6-7-7--------------------------------------------
--7--9---4--4-4-4-4-4---6-7-7--6-7-7--------------------------------------------
------------------------6-7-7--6-7-7--------------------------------------------


                                                          repeat 2
--------------------------------------------------------------------------------
--------------------------------------------------------------------------------
--------------------------------------------------------------------------------
--2-2---x-2-2---x-x-2----2-2--x-2-2--x-x-7--2-2--x-2-2--x-x-2---2-2--x-x--2-2---
--2-2---x-2-2---x-x-2----2-2--x-2-2--x-x-7--2-2--x-2-2--x-x-2---2-2--x-x--2-2---
--2-2---x-2-2---x-x-2----2-2--x-2-2--x-x-7--2-2--x-2-2--x-x-2---2-2--x-x--2-2---


                      repeat 2
----------------------------------
--------------------------5-------
--------9--------9----------------
-----9--------9--------6------2---
--7--------6--------4-------0---0-
----------------------------------
                  
                                  repeat 2
-0---0---0---0---0---0----------0--------------------------
---0---0---0---0---0---0--0--2h~~~2-0----------------------
-----------------------------------------------------------
-----------------------------------------------------------
-----------------------------------------------------------
-----------------------------------------------------------


                                    repeat 2
-----------------------------------------------------------
-----------------------------------------------------------
-----------------------------------------------------------
--0-2-2---0-2-7---0-2-2---0-2-7--0-2-----------------------
--0-2-2---0-2-7---0-2-2---0-2-7--0-2-----------------------
--0-2-2---0-2-7---0-2-2---0-2-7--0-2-----------------------


back to intro 

thats is it as easy as walking
Comments