Sum 41 - Fat Lip Chords & Tabs

 

Fat Lip Chords & Tabs

Sum 41 Chords & Tabs

Version: 2 Type: Tab 2 ratings
1 star 2 stars 3 stars 4 stars 5 stars
comments

Fat Lip Tab

SUM 41 – FAT LIP

Any questions or comments e-mail me at spike1007@hotmail.com

Intro (Palm muted distortion guitar) 2x then without distortion 2x
E|--------------------------|--------------------------|
B|--------------------------|--------------------------|
G|--------------------------|--------------------------|
D|---------6-----------4----|---------6-----------4-2--|
A|--------------------------|--------------------------|
E|--4-5-7-------4-5-7-------|--4-5-7-------4-5-7-------|

First verse repeat 2x
E|-------------------------------|
B|-------------------------------|
G|-------------------------------|
D|-2------------2----------------|
A|-2—---7-6-7---2—---7-6-7-------|
E|-0------------0----------5-4-2-|
  
Repeat 2x
  Pm___   ___   ___   ___   ___   ___   ___   ___  
E|---------------------------------------------------|
B|---------------------------------------------------|
G|--------------------------6-6-6-6-6-6--------------|
D|--2-2-2-2-2-2-2-2-2-2-2-2-6-6-6-6-6-6-7-7-7-7-7-7--|
A|--2-2-2-2-2-2-2-2-2-2-2-2-4-4-4-4-4-4-7-7-7-7-7-7--|
E|--0-0-0-0-0-0-0-0-0-0-0-0-------------5-5-5-5-5-5--|

Repeat 2x
E|-----------------------|
B|-----------------------|
G|--9---6-6-6-6----------|
D|--9-9-6-6-6-6-6-7-6-7--|
A|--7-9-4-4-4-4-6-7-6-7--|
E|----7---------4-5-4-5--|

Played with no palm muting
E|--------------------------|--------------------------|
B|--------------------------|--------------------------|
G|--------------------------|--------------------------|
D|---------6-----------4----|---------6-----------4-2--|
A|--------------------------|--------------------------|
E|--4-5-7-------4-5-7-------|--4-5-7-------4-5-7-------|

Repeat 2x
E|------------------|-------------------|
B|------------------|-------------------|
G|------------------|-------------------|
D|-2-----------9-9--|--7----------------|
A|-2—---7-6-7—-9-9--|--7—---7-6-7-------|
E|-0-----------7-7--|--5----------5-4-2-|





Repeat 2x
  Pm___   ___   ___   ___   ___   ___   ___   ___  
E|---------------------------------------------------|
B|---------------------------------------------------|
G|--------------------------6-6-6-6-6-6--------------|
D|--2-2-2-2-2-2-2-2-2-2-2-2-6-6-6-6-6-6-7-7-7-7-7-7--|
A|--2-2-2-2-2-2-2-2-2-2-2-2-4-4-4-4-4-4-7-7-7-7-7-7--|
E|--0-0-0-0-0-0-0-0-0-0-0-0-------------5-5-5-5-5-5--|
[ Tab from: http://www.guitartabs.cc/tabs/s/sum_41/fat_lip_tab_ver_2.html ]
Repeat 2x
E|-----------------------|
B|-----------------------|
G|--9---6-6-6-6----------|
D|--9-9-6-6-6-6-6-7-6-7--|
A|--7-9-4-4-4-4-6-7-6-7--|
E|----7---------4-5-4-5--|

 					       1ST  2ND 
E|-------------------------------|  |---|---|
B|-------------------------------|  |---|---|
G|-------------------------------|  |---|---|
D|--2-2---2-2---2-----2-2---2-2—-|  |-7-|-2-|
A|--2-2---2-2---2-----2-2---2-2--|  |-7-|-2-|
E|--0-0---0-0---0-----0-0---0-0--|  |-5-|-0-|

Repeat 4x
E|-------------------------------------|
B|-------------------------------------|
G|------9-------9-------9---------9----|
D|----9---9—--9---9---9---9---------9--|
A|--7-------6-------------------0------|
E|------------------9------------------|

E|-----------------------------------------|
B|-----------------------------------------|
G|-----------------9------------------9----|
D|--7/9-9-9—-7/9-9-7—--7/9-9-9—-7/9-9-7----|
A|--5/7-7-7--5/7-7-7---5/7-7-7--5/7-7-7----|
E|--5/7-7-7--5/7-7-----5/7-7-7--5/7-7------|

E|--------------------------------------------|-------------|
B|--------------------------------------------|-------------|
G|-----------------9--------------------------|-------9-----|
D|--7/9-9-9—-7/9-9-7—--7/9-9-9—-7/9-9----7/9--|---7/9—7-----|
A|--5/7-7-7--5/7-7-7---5/7-7-7--5/7-7----5/7--|---5/7—7-----|
E|--5/7-7-7--5/7-7-----5/7-7-7--5/7-7----5/7--|---5/7-------|

E|--------------------|
B|--------------------|
G|-----------------9--|
D|--7/9-9-9—-7/9-9-7--|
A|--5/7-7-7--5/7-7-7--|
E|--5/7-7-7--5/7-7----|




Pm  _______________ build up ______
E|-----------------------------------|
B|-----------------------------------|
G|-----------------------------------|
D|--2-2-2-2-2-2-2-2-2-2-2-2-2-2-2-2--|
A|--2-2-2-2-2-2-2-2-2-2-2-2-2-2-2-2--|
E|--0-0-0-0-0-0-0-0-0-0-0-0-0-0-0-0--|

Repeat 4x
E|-----------------------|
B|-----------------------|
G|--9---6-6-6-6----------|
D|--9-9-6-6-6-6-6-7-6-7--|
A|--7-9-4-4-4-4-6-7-6-7--|
E|----7---------4-5-4-5--|

E|--------------------------|--------------------------|
B|--------------------------|--------------------------|
G|--------------------------|--------------------------|
D|---------6-----------4----|---------6-----------4-2--|
A|--------------------------|--------------------------|
E|--4-5-7-------4-5-7-------|--4-5-7-------4-5-7-------|

E|----------------|
B|----------------|
G|----------------|
D|--2-2------2-2--|
A|--2-2------2-2--|
E|--0-0------0-0--|

Spike ;)

Comments