Sum 41 - Fat Lip Chords & Tabs

 

Fat Lip Chords & Tabs

Sum 41 Chords & Tabs

Version: 1 Type: Tab 1 rating
1 star 2 stars 3 stars 4 stars 5 stars
comments

Fat Lip Tab

-------------------------------------------------------------------------------
                           FAT LIP-Sum 41
-------------------------------------------------------------------------------

By:Frédéric Hamel (http://derfpunk.multimania.com)
   This is the new song by Sum 41
 
 Guitar 2:Drop D
  
  Intro
e|---------------------------------------------------------------------------|X2
B|---------------------------------------------------------------------------|
G|---------------------------------------------------------------------------|
D|--------6---------4---------6-------4p2------------------------------------|
A|-0-0-2-----0-0-2-----0-0-2----0-0-2----------------------------------------|
E|---------------------------------------------------------------------------|
  | p.m |   | p.m |   | p.m |  | p.m |


  Guitar 1
e|---------------------------------------------------------------------------|X2
B|---------------------------------------------------------------------------|Part 1
G|---------------------------------------------------------------------------|
D|--------6---------4---------6-------4p2------------------------------------|
A|-0-0-2-----0-0-2-----0-0-2----0-0-2----------------------------------------|
E|---------------------------------------------------------------------------|
  Guitar 2
e|---------------------------------------------------------------------------|
B|---------------------------------------------------------------------------|
G|---------------------------------------------------------------------------|
D|-0-2-2--0-2-7--0-2-2--0-2-7--0-2-2--0-2-7--0-2-2--0-2-7--------------------|
A|-0-2-2--0-2-7--0-2-2--0-2-7--0-2-2--0-2-7--0-2-2--0-2-7--------------------|
E|-0-2-2--0-2-7--0-2-2--0-2-7--0-2-2--0-2-7--0-2-2--0-2-7--------------------|

  guitar 1
e|---------------------------------------------------------------------------|Part 2
B|---------------------------------------------------------------------------|
G|---------------------------------------------------------------------------|
D|-2-2p0h2------2-----2p0h2-------------2p0h2------2---2p0h2-----------------|
A|-0-------2-2--0-----------0-----------------2-2--0----------0--------------|
E|-----------------------------4-2-0-----------------------------4-2-0-------|

  Guitar 1
e|---------------------------------------------------------------------------|Part 3
B|---------------------------------------------------------------------------|
G|---------------------------------------------------------------------------|
D|-9-9-9-9--6-6--2-2---9-9-9-9--6-6--2-2-------------------------------------|
A|-7-7-7-7--4-4--0-0---7-7-7-7--4-4--0-0-------------------------------------|
E|-----------------------------------------pick scrape-----------------------|
  |  p.m  ||p.m||p.m| |  p.m  ||p.m||p.m|
[ Tab from: http://www.guitartabs.cc/tabs/s/sum_41/fat_lip_tab.html ]
e|---------------------------------------------------------------------------|X2
B|---------------------------------------------------------------------------|Part 4
G|-9-4-9---------------------------------------------------------------------|
D|-9-4-9-6-7-7-6-6-7-7-------------------------------------------------------|
A|-7-2-7-6-7-7-6-6-7-7-------------------------------------------------------|
E|-------6-7-7-6-6-7-7-------------------------------------------------------|

Part 1 1X
Part 2 1X
Part 3 1X
Part 4 1X

e|---------------------------------------------------------------------------|
B|---------------------------------------------------------------------------|
G|---------------------------------------------------------------------------|
D|-2-2-x-2-2-x-x-2----2-2-x-2-2-x-x-7----2-2-x-2-2-x-x-2----2-2-x-2-2--------|
A|-2-2-x-2-2-x-x-2----2-2-x-2-2-x-x-7----2-2-x-2-2-x-x-2----2-2-x-2-2--------|
E|-2-2-x-2-2-x-x-2----2-2-x-2-2-x-x-7----2-2-x-2-2-x-x-2----2-2-x-2-2--------|

  clean
e|-----0-------0--------0----------------------------------------------------|X4
B|---0---0---0---0----0---0--------------------------------------------------|
G|---------------------------------------------------------------------------|
D|-2--------1----------------------------------------------------------------|
A|------------------4---------0-0-0------------------------------------------|
E|---------------------------------------------------------------------------|

e|---------------------------------------------------------------------------|
B|---------------------------------------------------------------------------|
G|---------------------------------------------------------------------------|
D|-0-2-0-2-7--0-2-0-2-7----0-2-0-2-7--0-2-0-2----0-2----0-2-7--0-2-0-2-7-----|
A|-0-2-0-2-7--0-2-0-2-7----0-2-0-2-7--0-2-0-2----0-2----0-2-7--0-2-0-2-7-----|
E|-0-2-0-2-7--0-2-0-2-7----0-2-0-2-7--0-2-0-2----0-2----0-2-7--0-2-0-2-7-----|

e|---------------------------------------------------------------------------|X4
B|---------------------------------------------------------------------------|
G|-9-4-9---------------------------------------------------------------------|
D|-9-4-9-6-7-7-6-6-7---------------------------------------------------------|
A|-7-2-7-6-7-7-6-6-7---------------------------------------------------------|
E|-------6-7-7-6-6-7---------------------------------------------------------|

Part 1

e|---------------------------------------------------------------------------|
B|---------------------------------------------------------------------------|
G|---------------------------------------------------------------------------|
D|-2-2--2-2------------------------------------------------------------------|
A|-2-2--2-2------------------------------------------------------------------|
E|-2-2--2-2------------------------------------------------------------------|
===============================================================================
Visit my web site http://derfpunk.multimania.com to find the other tabs from this album
Comments