Sum 41 - Fat Lip Chords & Tabs

 

Fat Lip Chords & Tabs

Sum 41 Chords & Tabs

Version: 3 Type: Bass Tab 0 ratings
1 star 2 stars 3 stars 4 stars 5 stars
comments

Fat Lip Bass Tab

On the Intro don't
this is the intro             This starts this verses repeat 2x
------------------------------------------------------------------------
------------------------------------------------------------------------
--------------------------------------2-2-0-0-0-0-0---------------------
-0-2-2-0-2-7-7-0-2-2-0-2-7-7--2-2-2-2---------------6-4-----------------
Chorus
------------------------------------------------------------------------
---------------------------------------------------------------2--------
---------------------------------4-4-4-4-4-4-4-4-0-0-0-0-0-2-4----------
-2-2-2-2-2-2-2-2-2-2-2-2-2-2-2-2---------------------------------2-2-2-2

------------------------------------------------------------------------
------------------6-6-6-6-6-6-6-6-9-6-7-6-------------------------------
-------------------------------------------9-7-2-2-4-4-4-6-6-6-7--------
-2-2-2-2-2-2-2-2-------------------------------------------------6-6-7-7

------------------------------------------------------------------------
------------------------------------------------------------------------
-------------6----------------------------------------------------------
-7-6-6-6-7-7------------------------------------------------------------

on the "don't count on me ..." you rest and then go back to the chrous
[ Tab from: http://www.guitartabs.cc/tabs/s/sum_41/fat_lip_btab_ver_3.html ]
Comments