Sum 41 - Fat Lip Chords & Tabs

 

Fat Lip Chords & Tabs

Sum 41 Chords & Tabs

Version: 1 Type: Bass Tab 0 ratings
1 star 2 stars 3 stars 4 stars 5 stars
comments

Fat Lip Bass Tab

   
~ let ring
r rest

Intro    (x4)
G-----------------|
D-----------------|
A---------------0-|
D-0h2-2-2-0h2-2---|

Verse Pt.1  (x2)
G---------|---------|
D---------|---------|
A-----2-2-|00-0-----|
D-22------|-----6-4-|

Verse Pt.2 (x2)
G------------------|------------------|
D------------------|------------------|
A------------------|44444444-00000000-|
D-2222222222222222-|------------------|

Chorus (x2)
G----------------------------|
D----------------------------|
A-7----44-44/5/6-------------|
D---99-----------66-77-66-77-|

Intro (x4)

Verse Pt.1 (x2)

Verse Pt.2 (x2)

Chorus (x2)

Bridge Pt.1
G---------------------------------|
D---------------------------------|
A----------------0----------------|
D-22-22-22-22-22---22-22-22-22-22-|
[ Tab from: http://www.guitartabs.cc/tabs/s/sum_41/fat_lip_btab.html ]
Bridge Pt.2 (Dont count on me, its the point your missin....)
G----------------------------------|
D----------------------------------|
A-2-h4----2~-4~-0-2-4----2~-4~-5-7-|
D------2~-------------2~-----------|

Intro with variation
G-------------|
D-------------|
A-----------0-|
D-0-2-2-0-2---|


Intro with more variation
G------------|-------------|------------|-------------|
D------------|-------------|------------|-------------|
A-----------0|-----------r-|----------2-|-----------0-|
D-0-2-2-0-2--|-0-2-2-0-2---|0-2-r-0-2---|-0-2-2-0-2---|

Before Last Chorus
G----------------------------------|
D----------------------------------|
A----------------------------------|
D-00000000000000000000000000000000-|

Chorus (x4)

Intro (x4)

Ending
G--------|
D--------|
A--------|
D--22-22-|

Have fun!!! 
Comments