Sum 41 - Fat Lip And Pain For Pleasure Chords & Tabs

 

Fat Lip And Pain For Pleasure Chords & Tabs

Sum 41 Chords & Tabs

Version: 1 Type: Tab 0 ratings
1 star 2 stars 3 stars 4 stars 5 stars
comments

Fat Lip And Pain For Pleasure Tab

#----------------------------------PLEASE NOTE---------------------------------#
#This file is the author's own work and represents their interpretation of the #
#song. You may only use this file for private study, scholarship, or research. #
#------------------------------------------------------------------------------#

Sum 41

Fat lip

N.B. Absolutoly not played in dropped D tunning!!!


Guitar 1play twice
e:-----------------------------------------------|
b:-----------------------------------------------|
c:-----------------------------------------------|
d:-------6----------4----------6---------4p2-----|
a:-0-0-2------0-0-2------0-0-2-----0-0-2---------|
E:-----------------------------------------------|
palm mute all notes on a string |
 |
Guitar 2 |
 |
e:-----------------------------------------------|
b:-----------------------------------------------|
g:------------------------------second time only-|
d:---------------------------------------7-7-7-7-|
a:---------------------------------------7-7-7-7-|
E:---------------------------------------5-5-5-5-|

Guitar 2
loudWith guitar 1 intro (no palm muting obiously)
e:-----------------------------------------------|
b:-----------------------------------------------|
g:-7---9-9----7---9------7---9-9---7---9---------|
d:-7---9-9----7---9-7----7---9-9---7---9-7-------|
a:-5---7-7----5---7-7----5---7-7---5---7-7-------|
E:------------------5--------------------5-------|
this may seem wrong at firts but it is the notes played by
the bass put into power chords (this maybe where people are
getting the low D and thus the Dropped D tunning from. the 
high bass notes)

Verse:
play both parts together if you have two guitarists
e:---------------------------------------------------------------|
b:---------------------------------------------------------------|
g:-----------------2------------------*--------------------------|
d:-2-2--2-0-2------2--2-0-2-------2-2-2-0-2----------2-0-2-------|
a:-2-2--------2-2--0--------0-----2-2-------2-2--0-0-------0-----|
E:-0-0------------------------4-2-0-0------------------------4-2-|
 |
e:---------------------------------------------------------------|
b:---------------------------------------------------------------|
g:-----------------2------------------*--------------------------|
d:-2-2--2-0-2------2--2-0-2-------2-2-6-4-6----------2-0-2-------|
a:-2-2--------2-2--0--------0-----2-2-------2-2--0-0-------0-----|
E:-0-0------------------------4-2-0-0------------------------4-2-|
*these are major third harmonies if u wanna use a whammy or harmoniser pedal

Play twice
pickscrape 2nd time only
e:-------------------------------------------------\\\\\\\\\\\\\\--|
b:-------------------------------------------------\\\\\\\\\\\\\\\-|
g:-----9-------9-------9-------9-------6-------6-------2-------2---|
d:-----9-------9-------9-------9-------6-------6-------2-------2---|
a:-----7-------7-------7-------7---4-4-4-4-4-4-4-4-0-0-0-0-0-0-0-0-|
E:-0-0-0-0-0-0-0-0-0-0-0-0-0-0-0-0---------------------------------|
P.M.--| |-----| |-----| |-----| |-----| |-----| |-----| |-----| |-|



Chorus

Chords are place to fit with words
play twice
e:----------------------------------------------------------------|
b:----------------------------------------------------------------|
g:-9-----9--------------------------------------------------------|
d:-9--9--9-------------------6------7----------6----7-------------|
a:-7--9--7-------------------6------7----------6----7-------------|
E:----7----------------------4------5----------4----5-------------|


e:----------------------------------------------------------------------------|
b:----------------------------------------------------------------------------|
g:-----------------------------2----------------------------------------------|
d:-2-2---2-2----2---2-2---2-2--2------2-2--2-2---2---2-2--2-2-----------------|
a:-2-2---2-2----2---2-2---2-2--0------2-2--2-2---2---2-2--2-2-----------------|
E:-0-0---0-0----0---0-0---0-0---------0-0--0-0---0---0-0--0-0-----------------|
Down down, down down, ect....


Guitar one: clean
e:-----0-------0-------0-----------|
b:---0---0---0---0---0---0---------|
g:---------------------------------|
d:-2-------1-------------------2---|
a:-----------------4-------x-0---0-|
E:---------------------------------|
      don't count...

Guitar 2: clean (come in with drums and bass)
e:-0---0---2---2---0---0-----------|
b:---0---0---0---0---0---0-0h2h0-0-|
g:---------------------------------|
d:---------------------------------|
a:---------------------------------|
E:---------------------------------|
play twice
e:--------------------|
b:--------------------|
g:-7---9-9----7---9---|
d:-7---9-9----7---9-7-|
a:-5---7-7----5---7-7-|
E:------------------5-|



No guitar over
"Standing on the corner_________"

e:--------------------|
b:--------------------|
g:-7---9-9----7---9---|
d:-7---9-9----7---9-7-|
a:-5---7-7----5---7-7-|
E:------------------5-|


[ Tab from: http://www.guitartabs.cc/tabs/s/sum_41/fat_lip_and_pain_for_pleasure_tab.html ]
e:--------------------------------------------------|
b:--------------------------------------------------|
g:-7---9-9----7---9------7---9--------7---9---------|
d:-7---9-9----7---9-HOOK-7---9-WANTED-7---9-7-------|
a:-5---7-7----5---7------5---7--------5---7-7-------|
E:------------------------------------------5-------|


e:--------------------|
b:--------------------|
g:-7---9-9----7---9---|
d:-7---9-9----7---9-7-|
a:-5---7-7----5---7-7-|
E:------------------5-|

"Somthing bout distortion!"


Build up on E chord then Chorus then end on

e:-----------|
b:-5-5---5-5-|
g:-4-4---4-4-|
d:-2-2---2-2-|
a:-2-2---2-2-|
E:-0-0---0-0-|

"Pain for Pleasure" For those metal heads who wanna play it live (insert your own joke about Iron Maiden here) our band do these two
songs at the end of our set at the moment and it kicks arse


Add harmonies last time only
e:---------------------------------|
b:---------------------------------|
g:---------------------------------|
d:-1---1-1-1---1-1-1---1-1-1-1-1-1-|
a:-6---6-6-6---6-6-6---6-6-6-6-6-6-|
E:---------------------------------|

e:---------------------------------|
b:---------------------------------|
g:---------------------------------|
d:-3---3-3-3---3-3-3---3-3-3-3-3-3-|
a:-6---6-6-6---6-6-6---6-6-6-6-6-6-|
E:---------------------------------|

e:---------------------------------|
b:---------------------------------|
g:---------------------------------|
d:-4---4-4-4---4-4-4---4-4-4-4-4-4-|
a:-6---6-6-6---6-6-6---6-6-6-6-6-6-|
E:---------------------------------|

e:---------------------------------|
b:---------------------------------|
g:---------------------------------|
d:-6-------6-------6-------6-------|
a:-6---6-6-6---6-6-6---6-6-6-6-6-6-|
E:---------------------------------|

    ______________  _________
guitars 1 + 2           /1.            ||2.       \
e:------------------------------------------------||----------|
b:-----------------------------------------------o||----------|
g:-8-8--------6-6--------4-4--------3-3-----------||----------|
d:-8-8--------6-6--------4-4--------3-3-----------||----------|
a:-6-6--------4-4--------2-2--------1-1----------o||----------|
E:------------------------------------------------||----------|
  ||          |
Guitar 3 (with +8va pedal)                        ||          |
e:------------------------------------------------||----------|
b:-----------------------------------------------o||----------|
g:------------------------------------------------||----------|
d:------------------------------------------------||----------|
a:-----9--8-6-----9--8-6-----9--8-6-----9--8-6---o||-11-9-8-4-|
E:------------------------------------------------||----------|
  ||          |
Guitar 4 (with +8va pedal)                        ||      |
e:------------------------------------------------||----------|
b:---Second time only----------------------------o||----------|
g:------------------------------------------------||----------|
d:-----8--6-4-----8--6-4-----8--6-4-----8--6-4----||-10-8-6---|
a:-----------------------------------------------o||--------8-|
E:------------------------------------------------||----------|

Two guiars one up one down like so.play twice
e:---------------------------------------------------------------|
b:---------------------------------------------------------------|
g:-8-11-10-8 ect...----------------------------------------------|
d:---------------------------------------------------------------|
a:-6--9--8-6-8-9-------9-8-6-8-9-------9-8-6-8-9-------9-8-6-8-4-|
E:---------------9---9-----------7---7-----------6---6-----------|

Verse (Also under last little bit)
play four times
e:-----------------------------------------------------------------------------|
b:-----------------------------------------------------------------------------|
g:-8---------------------------8--6------------------------6--4-----4--3-----6-|
d:-8---------------------------8--6------------------------6--4-----4--3-----6-|
a:-6---6-6-6---6-6-6---6-6-6---6--4-4-4-4---4-4-4---4-4-4--4--2-ect-2--1-ect-4-|
E:-galopping iron maiden rythm-------------------------------------------------|

e:------------------------------------------|
b:------------------------------------------|
g:-8----8\(6)-6---6\(4)-4---4\(3)-3----3--6-|
d:-x----x-----x---x-----x---x-----x----x--x-|
a:-6----6\(4)-4---4\(2)-2---2\(1)-1----1--4-|
E:------------------------------------------|

e:--------------------------------------------------|
b:--------------------------------------------------|
g:-8----8\(10)-10--10\(11)-11---11\(15)-15-15-15-15-|
d:-x----x------x---x--------x----x-------x--x--x--x-|
a:-6----6/(8)--8---08\(09)-09---09\(13)-13-13-13-13-|
E:--------------------------------------------------|

Chorus


When proforming this you MUST lift your guitar above your head, turn around and shake your arse (It's the law)

Disclamer: 
It may not actualy be the law to shake your arse at the end of this song but unless you have a huge
arse full of selulite or you are male  please do!!!
Comments