Sum 41 - Crazy Amanda Bunkface Chords & Tabs

 

Crazy Amanda Bunkface Chords & Tabs

Sum 41 Chords & Tabs

Version: 3 Type: Tab 0 ratings
1 star 2 stars 3 stars 4 stars 5 stars
comments

Crazy Amanda Bunkface Tab

I pieced this together from other tabs and on my own...its right though.

(Its NOT in drop D...no sum 41 songs are)

p.m. = palm mute
XXXX = palm mute also
\    = slide down
/    = slide up  


Intro:

-----------------------------------------------------
-----------------------------------------------------
-----------------------------------------------------
---5-------7-------9-------10------------------------
---5-------7-------9-------10------------------------
---3-------5-------7--------8------------------------
  p.m.    p.m.    p.m.     p.m.

Pre-Chous  
   00:10
-----------------------------------------------------
-----------------------------------------------------
-------------------XX5-------------------------------
-XX5---XX4---XX3---XX5---XX5---XX4---XX333333333-----
-XX5---XX4---XX3---XX3---XX5---XX4---XX333333333-----
-XX3---XX2---XX1---------XX3---XX2---XX111111111-----

Chorus
  00:20
-----------------------------------------------------
-----------------------------------------------------
-555---------7777777----(x4)-------------------------
-555---555---7777777---------------------------------
-333---555---5555555---------------------------------
-------333-------------------------------------------

  00:30
-----------------------------------------------------
-----------------------------------------------------
------------55555555-5/77----(x2)--------------------
-55555555---55555555-5/77----------------------------
-55555555---33333333-3/55----------------------------
-33333333--------------------------------------------

Second Verse  
   00:41
-----------------------------------------------------
-----------------------------------------------------
-----------------------------------------------------
-----------------------------------------------------
---------------------------------------------(x2)----
-7\3333333---5555555---7777777---8888888-------------
[ Tab from: http://www.guitartabs.cc/tabs/s/sum_41/crazy_amanda_bunkface_tab_ver_3.html ]
Pre-chorus (slghty different this time)
   00:51
-----------------------------------------------------
-----------------------------------------------------
----------------------------------5-555555-----------
-5-555555---4-444444---3-333333---5-555555-----------
-5-555555---4-444444---3-333333---3-333333-----------
-3-333333---2-222222---1-111111----------------------

-----------------------------------------------------
-----------------------------------------------------
-----------------------------------------------------
-5-555555---4-444444---3x33x33-----------------------
-5-555555---4-444444---3x33x33-----------------------
-3-333333---2-222222---1x11x11-----------------------

Repeat Chorus
   01:01

Bridge (sorta)
   01:12
-----------------------------------------------------
-----------------------------------------------------
-----------------------------------------------------
-XXX-2---XXX-2---XXX-2---XXXX45---(x3)---------------
-XXX-2---XXX-2---XXX-2---XXXX45----------------------
-XXX-0---XXX-0---XXX-0---XXXX23----------------------

   01:27
-----------------------------------------------------
-----------------------------------------------------
-----------------------------------------------------
-XXX-2---XXX-2---XXX-2---XXXX45XXXX45XXXX45-5--------
-XXX-2---XXX-2---XXX-2---XXXX45XXXX45XXXX45-5-(let ring)
-XXX-0---XXX-0---XXX-0---XXXX23XXXX23XXXX23-3--------

   01:36
-----------------------------------------------------
-----------------------------------------------------
-----------------------------------------------------
-5-555555---7-777777----9-999999--1010101010---(X3)--
-5-555555---7-777777----9-999999--1010101010---------
-3-333333---5-555555----7-777777---8-8888888---------

   01:51
----------------------------------------------------------
----------------------------------------------------------
----------------------------------7-5---7-5---7-5---------
-5-555555---7-777777---9-999999---7-5-5-7-5-5-7-5-5555555-
-5-555555---7-777777---9-999999---5-3-5-5-3-5-5-3-5555555-
-3-333333---5-555555---7-777777-------3-----3-----3333333-

Repeat Chorus
   02:00
End on...
-------------
-------------
-------------
-------------
-----5\------
-----5\------
-----3\------

        Thats It! Its pretty easy, but still a kick ass song!
Comments