Sum 41 - Bitter End Chords & Tabs

 

Bitter End Chords & Tabs

Sum 41 Chords & Tabs

Version: 4 Type: Tab 0 ratings
1 star 2 stars 3 stars 4 stars 5 stars
comments

Bitter End Tab

tabber:whatsername 13
song:the bitter end
Artist:Sum 41



The Bitter End by Sum 41
Gt.2 (Deryck Rhythm) 



Wait x2 then (0:09)
Main Riff (0:14)
|------------------|-----------------||
|------------------|-----------------||
|------------------|-----------------||
|------------------|-----------------||
|----4-5\4---4-5\4-|-----5-------4---||
|--0-2-3\2-0-2-3\2-|-0-2---3-0-2---2-|| x2
   . .      . .      . . . . . . . . 

Break (0:23)
  
Verse (0:31)
|--------------------|----------------|----------------------------||
|--------------------|----------------|----------------------------||
|--------------------|---------5---4--|----------------------------||
|--5-5-------4-----4-|-7-----7-5---4--|-----4-----4------4---7-7-7-||
|--5-5-------4-----4-|-7-----7-3---2--|-----4-----4------4---7-7-7-||
|--3-3---2-2-2-2-2-2-|-5-5-5-5--------|-2-2-2-2-2-2--2-2-2-2-5-5-5-|| x2
   . .   . .   . .       . .     . .    . .   . .    . .   .

Chorus (0:41)
|--------------------------------------------------------||
|--------------------------------------------------------||
|-11----------9-----------7---------------6-6-6-6--------||
|-11----------9-----------7-----------7-7-6-6-6-6--11----||
|--9-9-9-9-9--7--7-7-7-7--5--5-5-5-5--7-7-4-4-4-4--9--8--||
|-------------------------------------5-5----------------|| x2
     . . . .     . . . .     . . . .      . . . .
Guitar Break (0:53)
||-----------------------||
||-----------------------||
||-----------------------||
||--4~---2~---7~---6--55-||
||--4~---2~---7~---6--55-||
||--2~---0~---5~---4--33-|| x1

Verse (0:58)
Chorus (1:07)

Solo Part.1 (1:20)
|----------||
|----------||
|------6~~-||
|-4~~--6~~-||
|-4~~--4~~-||
|-2~~------|| x4

Verse (Behind Solo.2) x4 (1:38)
Intro x1 (1:57)

Interlude (2:02)
|------------------------------------||
|------------------------------------||
|------------------------------------||
|-------------4----------------------||
|-----4---5---2---5---4---5---4------||
|-0-0-2-0-3-0---0-3-0-2-0-3-0-2------|| 
  . .   .   .   .   .   .   .

|---------------------------------||
|---------------------------------||
|---------------------------------||
|-------------4-------------------||
|-----4---5---2---5---4---5-5-----||
|-0-0-2-0-3-0---0-3-0-2-0-3-3-----|| x1
  . .   .   .   .   .   .   .


Verse x2 (2:07)
Chorus x2 (2:16)
Main Riff x4 (2:27)

Outro (2:38)
|------------------------------------||
|------------------------------------||
|------------------------------------||
|-------------4----------------------||
|-----4---5---2---5---4---5---4------||
|-0-0-2-0-3-0---0-3-0-2-0-3-0-2------|| 
  . .   .   .   .   .   .   .

|-------------||
|-------------||
|-------------||
|-4x-7x-6x-5x-||
|-4x-7x-6x-5x-||
|-2x-5x-4x-3x-||



The Bitter End by Sum 41
Gt.1 (Brownsound Lead)

Intro (0:00)
|--------------------------------------------||
|--------------------------------------------||
|------9-9-9-9--7-7-7-7---6~-----------------||
|-4~---9-9-9-9--7-7-7-7---6~---7-7--7-7------||
|-4~---7-7-7-7--5-5-5-5---4~---7-7--7-7------||
|-2~---------------------------5-5--4-4------|| x2

|------------------|-----------------||
|------------------|-----------------||
|------------------|-----------------||
|------------------|-----------------||
|----4-5\4---4-5\4-|-----5-------4---||
|--0-2-3\2-0-2-3\2-|-0-2---3-0-2---2-|| x4
   . .      . .      . . . . . . . . 

||--------------------------|-------------------------|
||--------------------------|-------------------------|
||--12-11-11-11-11-11-11-11-|-12-11-11-11-11-11-11-11-|
||---x--x--x--x--x--x--x--x-|--x--x--x--x--x--x--x--x-|
||--10--9--9--9--9--9--9--9-|-10--9--9--9--9--9--9--9-|
||--------------------------|-------------------------|

||--------------------------|-------------|
||--------------------------|-------------|
||--12-11-11-11-11-11-11-11-|-------------|
||---x--x--x--x--x--x--x--x-|-------------|
||--10--9--9--9--9--9--9--9-|----------7--|
||--------------------------|---7-8-10----| x2


||-19p17p14-19-19p17p14-19p17p14-19-19p17p14-|
||-------------------------------------------|
||-------------------------------------------|
||-------------------------------------------|
||-------------------------------------------|
||-------------------------------------------|


|-19p17p14-19-19p17p14-17b19---(17)r(17)-14-|
|-------------------------------------------|
|-------------------------------------------|
|-------------------------------------------|
|-------------------------------------------|
|-------------------------------------------|


|-17p14p12-14p12----17p14p12-14p12----|-------------------------------||
|----------------14----------------14-|-17p14p12-14p12----12-14-12----||
|-------------------------------------|----------------14----------14-||
|-------------------------------------|-------------------------------||
|-------------------------------------|-------------------------------||
|-------------------------------------|-------------------------------||



SOLO
|------------------||-------------|------------------------------|
|------------------||-------------|------------------------------|
|------------------||-------------|------------------------------|
|-4-4--------------||-------------|------------------------------|
|-4-4--------------||-9-------11--|-11h=12-(12)-(12)--11h12p11p9-|
|-2-2----/14\------||-------------|------------------------------|


|------------------|---------------------------|
|------------------|---------------------------|
|------------------|---------------------------|
|------------------|---------------------------|
|-7----(7)-(7)S11--|-11s=14-(14)-(14)--12--11--|
|------------------|---------------------------|


|-------------------|------------------------|
|-------------------|------------------------|
|-------------------|------------------------|
|-------------------|------------------------|
|-9-------11-(11)p9-|-11b12----11b12r---(11)-|
|-------------------|------------------------|

[ Tab from: http://www.guitartabs.cc/tabs/s/sum_41/bitter_end_tab_ver_4.html ]
|------------------|-------------------------------||
|------------------|-------------------------------||
|------------------|-------------------------------||
|------------------|-------------------------------||
|-7----(7)-(7)S11--|-11s-14-(14)-(14)--12\---------||
|------------------|-------------------------------||


||---------------|-------------------|
||---------------|-------------------|
||-11----13--14--|-11---13--14--11---|
||---------------|-------------------|
||---------------|-------------------|
||---------------|-------------------|


|----------------------|-----------------------12-|
|----------------------|-----------12----12-14----|
|-9--(9)-(9)b11r(9)----|-11--13-14----14----------|
|----------------------|--------------------------|
|----------------------|--------------------------|
|----------------------|--------------------------|


Main Solo
  
||-14-14-14-14-14-14s9s14-14-14-14-14-14s9s|
||-----------------------------------------|
||-----------------------------------------|
||-----------------------------------------|
||-----------------------------------------|
||-----------------------------------------|


|-14-14-14-14-14-14s9s14-14-14-14-14-14-14-14-|
|---------------------------------------------|
|---------------------------------------------|
|---------------------------------------------|
|---------------------------------------------|
|---------------------------------------------|


|-19-19-17p14-19-19-17p14-19-19-17p14-19-19-17p14-|
|-------------------------------------------------|
|-------------------------------------------------|
|-------------------------------------------------|
|-------------------------------------------------|
|-------------------------------------------------|


|-19-19-17p14-19-19-17p14-19b21-----17p14--|
|------------------------------------------|
|------------------------------------------|
|------------------------------------------|
|------------------------------------------|
|------------------------------------------|


|-17p14------14-------------------------------|
|---------17----17---14-17p14------14---------|
|-------------------------------16----16---14-|
|---------------------------------------------|
|---------------------------------------------|
|---------------------------------------------|


|--------------------------------------------|
|--------------------------------------------|
|-16p14------14------------------------------|
|---------16----16---14h16-14------14--------|
|-------------------------------16----16-14--|
|--------------------------------------------|


|---------------------------------------------|
|---------------------------------------------|
|---------------------------------------------|
|---------------------------------------------|
|-16p14------14--------------------14------14-|
|---------17----17---16-14-16---17----17------|


|---------------------------------|
|---------------------------------|
|---------------------------------|
|------------14------14-16--------|
|-16-14---16----16----------------|
|---------------------------------|


|-21p17---17---------17-21p17--------------17-|
|---------------19--------------19----19------|
|------------18--------------------18---------|
|---------------------------------------------|
|---------------------------------------------|
|---------------------------------------------|


|-21p17--------------17-21p17------------17--|
|---------19----19--------------19----19-----|
|------------18--------------------18--------|
|--------------------------------------------|
|--------------------------------------------|
|--------------------------------------------|


|-21p17--------------17-21p17--------------17-|
|---------19----19--------------19----19------|
|------------18--------------------18---------|
|---------------------------------------------|
|---------------------------------------------|
|---------------------------------------------|


|-21p17--------------17-21-17--17-17-17-17-17-|
|---------19----19----------------------------|
|------------18-------------------------------|
|---------------------------------------------|
|---------------------------------------------|
|---------------------------------------------|


|-21-17-17-22-17-17-21-17-19-19-19-19-19-|
|----------------------------------------|
|----------------------------------------|
|----------------------------------------|
|----------------------------------------|
|----------------------------------------|


|-17-17-19-19-19-19-19-19-17-17-19-19-16----|
|----------------------------------------19-|
|-------------------------------------------|
|-------------------------------------------|
|-------------------------------------------|
|-------------------------------------------|


|-17-19-19-19-19-19-19-17-19-19-19-19-19-19-|
|-------------------------------------------|
|-------------------------------------------|
|-------------------------------------------|
|-------------------------------------------|
|-------------------------------------------|


|-21-19-19-19-19-19-19-21-21-19--19-22-22-19-19--||
|------------------------------------------------||
|------------------------------------------------||
|------------------------------------------------||
|------------------------------------------------||
|------------------------------------------------||


||-24b26===(24)----(24)r(24)-|
||---------------------------|
||---------------------------|
||---------------------------|
||---------------------------|
||---------------------------|

Chorus x2

|------------------------------------||
|------------------------------------||
|------------------------------------||
|-------------4----------------------||
|-----4---5---2---5---4---5---4------||
|-0-0-2-0-3-0---0-3-0-2-0-3-0-2------|| 
  . .   .   .   .   .   .   .

|---------------------------------||
|---------------------------------||
|---------------------------------||
|-------------4-------------------||
|-----4---5---2---5---4---5-5-----||
|-0-0-2-0-3-0---0-3-0-2-0-3-3-----|| x1
  . .   .   .   .   .   .   .


Outro (2:38)
|------------------------------------||
|------------------------------------||
|------------------------------------||
|-------------4----------------------||
|-----4---5---2---5---4---5---4------||
|-0-0-2-0-3-0---0-3-0-2-0-3-0-2------|| 
  . .   .   .   .   .   .   .

|-------------||
|-------------||
|-------------||
|-4x-7x-6x-5x-||
|-4x-7x-6x-5x-||
|-2x-5x-4x-3x-||


Thats It PleSe Rate Good!!!!!
Comments