Sum 41 - Bitter End Chords & Tabs

 

Bitter End Chords & Tabs

Sum 41 Chords & Tabs

Version: 3 Type: Tab 0 ratings
1 star 2 stars 3 stars 4 stars 5 stars
comments

Bitter End Tab

   
-----------------------------------------------------------------------------
                            Sum 41 - Bitter End
-----------------------------------------------------------------------------

band: sum 41
song: bitter end
album: chuck
tabbed by: Dover, Ben

tuning: standard (E A D G B E) this is A great song, sum41 made A good metal song,
thought it sounds alot like metallica riffs, its good to hear a band trying to bring
back the good long riffs metallica, but sum 41 can never fill that empty space...so i
tried to make the tab as simple as possible, hope you guys enjoy

hammer on = H
pull off  = p
   b      = bend to #
   r      = release bend back to #
  ===     = let the note ring


INTRO, distortion
E|--------------------------------------------|
B|--------------------------------------------|
G|-------------5---------------------5--------|
D|-3--555-666--5--55-44--3--555-666--5--55-44-|
A|-3--333-444--3--33-22--3--333-444--3--33-22-|
E|-1---------------------1--------------------|

Palm mute the 0's low
E|------------------------------------------------------------|
B|------------------------------------------------------------|
G|------------------------------------------------------------|
D|------------------------------------------------------------|
A|-----5/4-----5/4-----4-----3-------5/4-----5/4-----4-----3--|
E|-0-0-3/2-0-0-3/2-0-0---0-0-----0-0-3/2-0-0-3/2-0-0---0-0----|

E|------------------------------------------------------------|
B|------------------------------------------------------------|
G|------------------------------------------------------------|
D|------------------------------------------------------------|
A|-----5/4-----5/4-----4-----3-------5/4-----5/4-----4-----3--|
E|-0-0-3/2-0-0-3/2-0-0---0-0-----0-0-3/2-0-0-3/2-0-0---0-0----|

E|------------------------------------------------------------|
B|------------------------------------------------------------|
G|------------------------------------------------------------|
D|------------------------------------------------------------|
A|-----5/4-----5/4-----4-----3-------5/4-----5/4-----4-----3--|
E|-0-0-3/2-0-0-3/2-0-0---0-0-----0-0-3/2-0-0-3/2-0-0---0-0----|
  
E|-----------------------------------------|
B|-----------------------------------------|
G|-----------------------------------------|
D|-4-333333--4-333333--4-333333-------2-3--|
A|------------------------------2-3-4------|
E|-----------------------------------------|

E|-----------------------------------------|
B|-----------------------------------------|
G|-----------------------------------------|
D|-4-333333--4-333333--4-333333-------2-3--|
A|------------------------------2-3-4------|
E|-----------------------------------------|

VERSE, distortion
E|-------------------------------------------------|
B|-------------------------------------------------|
G|-------------------------------------------------|
D|-----------------3-4-3------------------------2--|
A|-3--xx--3--xx--3-1-2-1----3--xx--3--xx--3-x-3-0--|
E|-1--xx--1--xx--1----------1--xx--1--xx--1-x-1----|

E|-------------------------------------------------|
B|-------------------------------------------------|
G|-------------------------------------------------|
D|-----------------3-4-3------------------------2--|
A|-3--xx--3--xx--3-1-2-1----3--xx--3--xx--3-x-3-0--|
E|-1--xx--1--xx--1----------1--xx--1--xx--1-x-1----|

these riffs might be hard to hear
E|-----------|-----------|
B|-----------|-----------|
G|-----------|-----------|
D|-10-8-7-5--|-------2-3-|
A|--8-6-5-3--|-2-3-4-----|
E|-----------|-----------|

E|-----------------------------------------|
B|-----------------------------------------|
G|-----------------------------------------|
D|-4-333333--4-333333--4-333333-------2-3--|
A|------------------------------2-3-4------|
E|-----------------------------------------|

E|-----------|-----------|
B|-----------|-----------|
G|-----------|-----------|
D|-10-8-7-5--|-------2-3-|
A|--8-6-5-3--|-2-3-4-----|
E|-----------|-----------|

First solo, it may sound like pull offs and hammer ons and all that junk, but its
tremelo picking, but you may occasionally do pull offs, its alright

First Solo
E|-13-18-16-13-18-16-13-18-16-13-18-16-13-18-16-13-18-16-13-18-16-13-18-16-|
B|-------------------------------------------------------------------------|
G|-------------------------------------------------------------------------|
D|-------------------------------------------------------------------------}
A|-------------------------------------------------------------------------|
E|-------------------------------------------------------------------------}

E|-13-18-16-13-18-16-18^-|
B|-----------------------|
G|-----------------------|
D|-----------------------|
A|-----------------------|
E|-----------------------|

E|-----------------------------------|
B|-13-18-16-13-13-16-14-11-14-13-----|
G|-------------------------------10^-|
D|-----------------------------------|
A|-----------------------------------|
E|-----------------------------------|

VERSE, distortion
E|-------------------------------------------------|
B|-------------------------------------------------|
G|-------------------------------------------------|
D|-----------------3-4-3------------------------2--|
A|-3--xx--3--xx--3-1-2-1----3--xx--3--xx--3-x-3-0--|
E|-1--xx--1--xx--1----------1--xx--1--xx--1-x-1----|

E|-------------------------------------------------|
B|-------------------------------------------------|
G|-------------------------------------------------|
D|-----------------3-4-3------------------------2--|
A|-3--xx--3--xx--3-1-2-1----3--xx--3--xx--3-x-3-0--|
E|-1--xx--1--xx--1----------1--xx--1--xx--1-x-1----|

again...the riffs might be hard to hear
E|-----------|-----------|
B|-----------|-----------|
G|-----------|-----------|
D|-10-8-7-5--|-------2-3-|
A|--8-6-5-3--|-2-3-4-----|
E|-----------|-----------|

E|-----------------------------------------|
B|-----------------------------------------|
G|-----------------------------------------|
D|-4-333333--4-333333--4-333333-------2-3--|
A|------------------------------2-3-4------|
E|-----------------------------------------|

E|-----------|-----------|
B|-----------|-----------|
G|-----------|-----------|
D|-10-8-7-5--|-------2-3-|
A|--8-6-5-3--|-2-3-4-----|
E|-----------|-----------|

Final Solo
E|-------------------------------------------------------------|
B|-------------------------------------------------------------|
G|-------------------------------------------------------------| 
D|-------------------------------------------------------------|
A|-8--8h10-11-11p10p8h10-6-10/13-8--8-8h10b11r10b11-6-10/13-8--|
E|-------------------------------------------------------------}
[ Tab from: http://www.guitartabs.cc/tabs/s/sum_41/bitter_end_tab_ver_3.html ]
E|--------------------------------------------------------------------|
B|--------9----9----------------9-11-9----------------9----9----------|
G|-10--12---10---12-10-8---8-12--------12-10-8--10-12---10---12-10-8^-| 
D|--------------------------------------------------------------------|
A|--------------------------------------------------------------------|
E|--------------------------------------------------------------------|

E|------------------------------------------------------------------------|
B|---------9-11-12--13-16-18-18-13-16-18-18-13-16-18-18-13-16-18-18-------|
G|-8-10-12----------------------------------------------------------------|
D|------------------------------------------------------------------------|
A|------------------------------------------------------------------------|
E|------------------------------------------------------------------------|

E|-18-13-18-13-18-13-18-13-18-13-18-13-18/21---------------------|
B|---------------------------------------------------------------|
G|---------------------------------------------------------------|
D|---------------------------------------------------------------|
A|---------------------------------------------------------------|
E|---------------------------------------------------------------|

E|-13-18-16-13-16-14---------------------------------------------|
B|-------------------13-18-16-13-16-14---------------------------|
G|-------------------------------------16-14---------------------|
D|-------------------------------------------16-14--16-14--------|
A|--------------------------------------------------------16-14--|
E|---------------------------------------------------------------|

E|--------------------------------------|
B|--------------------------------------|
G|--------------------------------------|
D|----------------------------------14--|
A|----------14----------14--------------|
E|-18-16-14----16-14-12----12-14-16-----|

E|-17-21p17------17-21p17------17-21p17------17-21p17------17-21p17------|
B|----------19------------19------------19------------19------------19---|
G|------------18------------18------------18------------18------------18-|
D|-----------------------------------------------------------------------|
A|-----------------------------------------------------------------------|
E|-----------------------------------------------------------------------|

E|-17-21p17------17-21p17------17-21p17-------|
B|----------19------------19------------19----|
G|------------18------------18------------18--|
D|--------------------------------------------|
A|--------------------------------------------|
E|--------------------------------------------|

E|-17-17-17-17-17--21-17-17-22-17-17-21-17-19-19-19-19-19-|
B|--------------------------------------------------------|
G|--------------------------------------------------------|
D|--------------------------------------------------------|
A|--------------------------------------------------------|
E|--------------------------------------------------------|

E|-17-17-19-19-19-19-19-19-17-17-19-19-16----17-19-19-19-19-19-19-17-|
B|----------------------------------------19-------------------------|
G|-------------------------------------------------------------------|
D|-------------------------------------------------------------------|
A|-------------------------------------------------------------------|
E|-------------------------------------------------------------------|

E|-19-19-19-19-19-19-21-19-19-19-19-19-19-21-21-19--19-22-22-19-19--|
B|------------------------------------------------------------------|
G|------------------------------------------------------------------|
D|------------------------------------------------------------------|
A|------------------------------------------------------------------|
E|------------------------------------------------------------------|

E|-24b26==(24)--|
B|--------------|
G|--------------|
D|--------------|
A|--------------|
E|--------------|

-- END SOLO -- 

E|-----------------------|--------------------------------------------------|
B|-----------------------|--------------------------------------------------|
G|-------------5---------|--------------------------------------------------|
D|-3--555-666--5--55-44--|-------------4-----------------------------4------|
A|-3--333-444--3--33-22--|-----4---5---2--5---4---5---4------4---5---2--5---|
E|-1---------------------|-0-0-2-0-3-0----3-0-2-0-3-0-2--0-0-2-0-3-0----3-0-|

E|-------------|
B|-------------|
G|-------------|
D|-------------|
A|---4---5---4-|
E|-0-2-0-3-0-2-|

E|-------------------------------------------------|
B|-------------------------------------------------|
G|-------------------------------------------------|
D|-----------------3-4-3------------------------2--|
A|-3--xx--3--xx--3-1-2-1----3--xx--3--xx--3-x-3-0--|
E|-1--xx--1--xx--1----------1--xx--1--xx--1-x-1----|

E|-------------------------------------------------|
B|-------------------------------------------------|
G|-------------------------------------------------|
D|-----------------3-4-3------------------------2--|
A|-3--xx--3--xx--3-1-2-1----3--xx--3--xx--3-x-3-0--|
E|-1--xx--1--xx--1----------1--xx--1--xx--1-x-1----|

E|-----------|-----------|
B|-----------|-----------|
G|-----------|-----------|
D|-10-8-7-5--|-------2-3-|
A|--8-6-5-3--|-2-3-4-----|
E|-----------|-----------|

E|-----------------------------------------|
B|-----------------------------------------|
G|-----------------------------------------|
D|-4-333333--4-333333--4-333333-------2-3--|
A|------------------------------2-3-4------|
E|-----------------------------------------|

E|-----------|-----------|
B|-----------|-----------|
G|-----------|-----------|
D|-10-8-7-5--|-------2-3-|
A|--8-6-5-3--|-2-3-4-----|
E|-----------|-----------|

E|------------------------------------------------------------|
B|------------------------------------------------------------|
G|------------------------------------------------------------|
D|------------------------------------------------------------|
A|-----5/4-----5/4-----4-----3-------5/4-----5/4-----4-----3--|
E|-0-0-3/2-0-0-3/2-0-0---0-0-----0-0-3/2-0-0-3/2-0-0---0-0----|

E|------------------------------------------------------------|
B|------------------------------------------------------------|
G|------------------------------------------------------------|
D|------------------------------------------------------------|
A|-----5/4-----5/4-----4-----3-------5/4-----5/4-----4-----3--|
E|-0-0-3/2-0-0-3/2-0-0---0-0-----0-0-3/2-0-0-3/2-0-0---0-0----|

E|-------------------------------------------------------------|
B|-------------------------------------------------------------|
G|-------------------------------------------------------------|
D|-------------4-----------------------------4-----------------|
A|-----4---5---2--5---4---5---4------4---5---2--5---4---5---4--|
E|-0-0-2-0-3-0----3-0-2-0-3-0-2--0-0-2-0-3-0----3-0-2-0-3-0-2--|

E|-------------------|
B|-------------------|
G|-------------------|
D|-4----7----6----5--|
A|-4----7----6----5--|
E|-2----5----4----3--|

There you have it, hope you enjoy
Comments