Sum 41 - Bitter End Chords & Tabs

 

Bitter End Chords & Tabs

Sum 41 Chords & Tabs

Version: 1 Type: Tab 0 ratings
1 star 2 stars 3 stars 4 stars 5 stars
comments

Bitter End Tab

   
Sum 41
the bitter end

s=slide
b=bend

solo from 1:19 to 1:38

1:19 - 1:23
e|--------------------------------|
B|---8-9-8-9-8---------9-9-11-9-8-|
G|-10----------10-8---------------|
D|--------------------------------|
A|--------------------------------|
E|--------------------------------|

1:24 - 1:27
e|-------------------------------|
B|--------------------9-9-11-9-8-|
G|-10-12s11-12b-12b-8------------|
D|-------------------------------|
A|-------------------------------|
E|-------------------------------|
[ Tab from: http://www.guitartabs.cc/tabs/s/sum_41/bitter_end_tab.html ]
1:28 - 1:33
e|---------------------------------------|
B|---8-9--8-9----8----8-9-11--9--8--9--8-|
G|-10---10---10-8-8-10-------------------|
D|---------------------------------------|
A|---------------------------------------|
E|---------------------------------------|

1:34 - 1:38
e|--------------------------------------7-11-|
B|----8-9----8-9-----------8-9-11--9-11------|this last stuff is really fast
G|-10-----10-----10-8---10-------------------|
D|-------------------------------------------|
A|-------------------------------------------|
E|-------------------------------------------|


Correction? Mail me @ jeroen@excessum.nl
www.excessum.nl for more guitar goodness!
Comments