Sum 41 - Billy Spleen Chords & Tabs

 

Billy Spleen Chords & Tabs

Sum 41 Chords & Tabs

Version: 2 Type: Tab 0 ratings
1 star 2 stars 3 stars 4 stars 5 stars
comments

Billy Spleen Tab

   
Bliiy Spleen - Sum 41

Tabed By: Toby Petershum, Bradely Puppolit

Friday 13th, June , 2003, 1:03:16pm or 1303 or XIII0IIIXVI (Roman Numerals)
or three past one o'clock and sixteen seconds in the afternoon.

Drop D

pretty well written song by Dave Broundsound,Bizzy D,Cone and Stevo32.I saw them
play live in Melbourne, australia and this is what i picked up. there are parts
that are left out like the second guitar part in the intro but playing high
works.This song is a combination between blur "heaartwreck" and Tool "Schism".
Must note drop d tuning so dont play stardardised tuning.ive tried to make it
easier by putting 2digit numbers in brackets to not get confused with
single/single notes. By the way if you are slow and stupid i've bullshited most
of the above. But the tab is correct.if you have any comments i dont care. :)
Intro
[ Tab from: http://www.guitartabs.cc/tabs/s/sum_41/billy_spleen_tab_ver_2.html ]
e|-------------------------------------------------------|
b|-------------------------------------------------------|
g|-------------------------------------------------------|
d|--22-222-222-22-22-22----------------------------------|
a|--22-222-222-22-22-22----------------------------------|
D|--22-222-222-22-22-22----------------------------------|

Verse

e|-------------------------------------------------------|
b|-------------------------------------------------------|
g|-------------------------------------------------------|
d|--222-0-222-0-555-000----------------------------------|
a|--222-0-222-0-555-000----------------------------------|
D|--222-0-222-0-555-000----------------------------------|

Chorus

e|-------------------------------------------------------|
b|-------------------------------------------------------|
g|-------------------------------------------------------|
d|--999-(11)(11)-(12)(12)-555-44-00000-222-55-77---------|
a|--999-(11)(11)-(12)(12)-555-44-00000-222-55-77---------|
D|--999-(11)(11)-(12)(12)-555-44-00000-222-55-77---------|

Bridge

e|-------------------------------------------------------|
b|-------------------------------------------------------|
g|-------------------------------------------------------|
d|--22-222-222-000-5-4-----------------------------------|
a|--22-222-222-000-5-4-----------------------------------|
D|--22-222-222-000-5-4-----------------------------------|

im pretty sure thats all.
later folks.
Comments