Sum 41 - Back Where I Belong Chords & Tabs

 

Back Where I Belong Chords & Tabs

Sum 41 Chords & Tabs

Version: 1 Type: Tab

Back Where I Belong Tab

   
-------------------------------------------------------------------------------
			BACK WHERE I BELONG - Sum 41
-------------------------------------------------------------------------------
Tabbed by: Daniel Love (Vash_15)
Email: vash_i5@yahoo.com

Tuning: Drop D (DADGBe)

One of my favorites off Screaming Bloody Murder. 
Took a bit to figure out it was Drop D, but after that it was pretty easy


Intro
e|----------7--------9------------------------------------------------------|
B|-7/9-10-7---7-10-7--------------------------------------------------------|
G|--------------------------------------------------------------------------|
D|--------------------------------------------------------------------------|
A|--------------------------------------------------------------------------|
D|--------------------------------------------------------------------------|

end on
e|----------7---------------------------------------------------------------|
B|-7/9-10-7---7--10---------------------------------------------------------|
G|--------------------------------------------------------------------------|
D|--------------------------------------------------------------------------|
A|--------------------------------------------------------------------------|
D|--------------------------------------------------------------------------|

Chorus
e|--------------------------------------------------------------------------|
B|--------------------------------------------------------------------------|
G|--------------------------------------------------------------------------|
D|-4444444444444444777777777777777722222222222222220000000000000000---------|
A|-4444444444444444777777777777777722222222222222220000000000000000-(x2)----|
D|-4444444444444444777777777777777722222222222222220000000000000000---------|

After the first chorus
e|---------------------------------------------------------------------------
B|--------------------------------------------------------------------------|
G|-----14-----14-----14-----14/13-------------------------------------------|
D|-4x4--x-2x2--x-0x0--x-2x2--x/-x--(x2)-------------------------------------|
A|-4x4-12-2x2-12-0x0-12-2x2-12/11-------------------------------------------|
D|-4x4----2x2----0x0----2x2-------------------------------------------------|
[ Tab from: http://www.guitartabs.cc/tabs/s/sum_41/back_where_i_belong_tab.html ]
After second chorus
e|--------------------------------------------------------------------------|
B|--------------------------------------------------------------------------|
G|--------------------------------------------------------------------------|
D|-4x4-xxxxxxxxxxxx-4x4-xxxxxxxxxxxx-4~-------------------------------------|
A|-4x4-xxxxxxxxxxxx-4x4-xxxxxxxxxxxx-4~-------------------------------------|
D|-4x4-xxxxxxxxxxxx-4x4-xxxxxxxxxxxx-4~-------------------------------------|

Bridge part 1 (substitute acosutic with power chords for D and A if you want)
e|---------------2-2-2-22-2222----------------------------------------------|
B|---------------3-3-3-33-3333-2-2-2-22-2222--------------------------------|
G|---------------2-2-2-22-2222-2-2-2-22-2222--------------------------------|
D|-4-4-4-44-4444---------------2-2-2-22-2222--------------------------------|
A|-4-4-4-44-4444---------------0-0-0-00-0000--------------------------------|
D|-4-4-4-44-4444-------------------------------------------------------------|

immediately go to this
e|-5---5----------------5---5-----------------------------------------------|
B|---7---7-9-7-6-7-(x3)---7---7-9-7-6---------------------------------------|
G|--------------------------------------------------------------------------|
D|--------------------------------------------------------------------------|
A|--------------------------------------------------------------------------|
D|--------------------------------------------------------------------------|

Bridge part 2
e|--------------------------------------------------------------------------|
B|--------------------------------------------------------------------------|
G|--------------------------------------------------------------------------|
D|-4447779994442200---------------------------------------------------------|
A|-4447779994442200-(x8)----------------------------------------------------|
D|-4447779994442200----------------------------------------------------------|

Final pre chorus
e|--------------------------------------------------------------------------|
B|--------------------------------------------------------------------------|
G|--------------------------------------------------------------------------|
D|--------------------------------------------------------------------------|
A|--------------------------------------------------------------------------|
D|-44444444444444447777777777777777222222222222222200000000000x-------------|

End by slamming on this chord repeatedly
D|-4-|
A|-4-|
D|-4-|

Verse
Chorus
Post chorus 1
Verse
Chorus
Post Chorus 2
Bridge pt 1
Bridge pt 2
Final pre chorus
Bridge pt 2 (partially)
end

************************************

| /   slide up
| \   slide down
| h   hammer-on
| p   pull-off
| ~   vibrato
| +   harmonic
| x   Mute note
| b   Bend
| pb  Pre-bend
| br  Bend release
| pbr Pre-bend release
| brb Bend release bend

************************************