Sum 41 - Asshole Chords & Tabs

 

Asshole Chords & Tabs

Sum 41 Chords & Tabs

Version: 2 Type: Tab 0 ratings
1 star 2 stars 3 stars 4 stars 5 stars
comments

Asshole Tab

Sum 41 - Asshole

New Song off there new album, Does It Look Infected It's a very fast song
kinda like "T.H.T" and "Never Wake Up"

Standard Tuning

Intro

E--------------------
B------------0-------
G--------------------   "FUCKING SICK!"
D--3-3-3-3------4-4--      
A--3-3-3-3------4-4--  <<< this intro isnt 100% right, but it sounds ok 2 me
E--2-2-2-2------2-2--   
(quick strums)


Verse/Chorus x2

E-----------------------------------------
B-----------------------------------------
G----------------------7-7-7-7--4-4-4-4--- 
D--4-4-4-4--7-7-7-7----7-7-7-7--4-4-4-4---
A--4-4-4-4--7-7-7-7----5-5-5-5--2-2-2-2---
E--2-2-2-2--5-5-5-5-----------------------


Bridge x2
[ Tab from: http://www.guitartabs.cc/tabs/s/sum_41/asshole_tab_ver_2.html ]
E-------------------------------------------
B-------------------------------------------
G------------------------------------4------  
D--2-x-x-x-x--2-x-x-x-x--2-x-x-x-x---4--5---
A--2-x-x-x-x--2-x-x-x-x--2-x-x-x-x---2--5---
E--0-x-x-x-x--0-x-x-x-x--0-x-x-x-x------3---

Verse/Chorus riff x2
Bridge riff x2 

Verse/Chorus x3
Ending (Slight variation of the Verse/Chorus riff)
E---------------------------------
B---------------------------------
G--------------------7-7-7--------
D--4-4-4-4--7-7-7-7--7-7-7-7-9----    
A--4-4-4-4--7-7-7-7--5-5-5-7-9----
E--2-2-2-2--5-5-5-5--------5-7----

Make sure the strums are rapid and quick throughout the whole song.

And thats it, What an easy song eh? 

Tabbed by James Graham (burnaway_fighte)
If you have any Feedback or corrections you'd like to make on this tab,
e-mail at guitardude17_uk@yahoo.co.uk
Comments