Sum 41 - Another Time Around Chords & Tabs

 

Another Time Around Chords & Tabs

Sum 41 Chords & Tabs

Version: 2 Type: Tab 0 ratings
1 star 2 stars 3 stars 4 stars 5 stars
comments

Another Time Around Tab

-------------------------------------------------------------------------------
                            ANOTHER TIME AROUND - Sum 41
-------------------------------------------------------------------------------

Mattleone@localbar.com

Intro: (Guitar 1)
B-5-------7---------------------------------------------------|
G-6-------7-------6-------------------------------------------|
D-6-------7-------7---------------6----------------4--------7-|
A-4-------5-------7---------------6----------------4--------7-|
E-----------------5---------------4----------------2--------5-|

Intro: (Guitar 2)  x1
G-9-------11------9---------------13---------------14-------14------9-|
D---------------------------------------------------------------------|
A-7-------9-------7---------------11---------------12-------12------7-|
[ Tab from: http://www.guitartabs.cc/tabs/s/sum_41/another_time_around_tab_ver_2.html ]
Both Guitars x1
D-2--2--2--2--2--2--2--2--2--2--2--2--2-2-2-2-2-2-2-2-|
A-2--2--2--2--2--2--2--2--2--2--2--2--2-2-2-2-2-2-2-2-|
E-0--0--0--0--0--0--0--0--0--0--0--0--0-0-0-0-0-0-0-0-|

Guitar 1: x4
D---7--7-7-7-7--7-7--7-7--2--2--2--2--2-2-2--2--2-|
A---7--7-7-7-7--7-7--7-7--2--2--2--2--2-2-2--2--2-|
E---5--5-5-5-4--4-5--5-4--0--0--0--0--0-0-0--0--0-|

Play these chords x4
G-7---------------------7-----------|
D-7----7----2-----------7----7----2-|
A-5----7----2-----------5----7----2-|
E------5----0----------------5----0-|

Play the last chords with this octave riff twice
G-7----11---9-|
D-------------|
A-5----9----7-|

"I'm not the one, I can't pretend"
G-4---------7--------7----4---2---2-----|
D-4---------7--------7----4---2---2---2-|
A-2---------5--------4----2---0---0---2-|
E-------------------------------------0-|

-------------------------------------------------------------------------------



Comments