Sum 41 - Another Time Around Chords & Tabs

 

Another Time Around Chords & Tabs

Sum 41 Chords & Tabs

Version: 1 Type: Tab 0 ratings
1 star 2 stars 3 stars 4 stars 5 stars
comments

Another Time Around Tab

As far as I know Im the only girl that has tabbed something! (pretty cool huh?!)
but I could be wrong! This is my FIRST tab! if you have any comments, e-mail me: Alien182exist@aol.com



Intro: (Guitar 1) 
------------------------------------------------------------------------------ 
-5-------7-------------------------------------------------------------------- 
-6-------7-------6------------------------------------------------------------ 
-6-------7-------7---------------6----------------4--------7------------------ 
-4-------5-------7---------------6----------------4--------7------------------ 
-----------------5---------------4----------------2--------5------------------ 

[ Tab from: http://www.guitartabs.cc/tabs/s/sum_41/another_time_around_tab.html ]
Intro: (Guitar 2)                                                              x1                 
------------------------------------------------------------------------------ 
------------------------------------------------------------------------------ 
-9-------11------9---------------13---------------14-------14------9---------- 
------------------------------------------------------------------------------ 
-7-------9-------7---------------11---------------12-------12------7---------- 
------------------------------------------------------------------------------ 
                                                                               
Both Guitars 
------------------------------------------------------------------------------ 
------------------------------------------------------------------------------ 
------------------------------------------------------------------------------ 
-2--2--2--2--2--2--2--2--2--2--2--2--2-2-2-2-2-2-2-2-------------------------- x1 
-2--2--2--2--2--2--2--2--2--2--2--2--2-2-2-2-2-2-2-2-------------------------- 
-0--0--0--0--0--0--0--0--0--0--0--0--0-0-0-0-0-0-0-0-------------------------- 
                                                                               
Guitar 1: 
------------------------------------------------------------------------------ 
------------------------------------------------------------------------------ 
------------------------------------------------------------------------------ 
---7--7-7-7-7--7-7--7-7--2--2--2--2--2-2-2--2--2------------------------------ x4 
---7--7-7-7-7--7-7--7-7--2--2--2--2--2-2-2--2--2------------------------------ 
---5--5-5-5-4--4-5--5-4--0--0--0--0--0-0-0--0--0------------------------------ 
                                                                               
Play these chords 
------------------------------------------------------------------------------ 
------------------------------------------------------------------------------ 
-7---------------------7------------------------------------------------------ 
-7----7----2-----------7----7----2-------------------------------------------- x4 
-5----7----2-----------5----7----2-------------------------------------------- 
------5----0----------------5----0-------------------------------------------- 

Play the last chords with this octave riff twice 
------------------------------------------------------------------------------ 
------------------------------------------------------------------------------ 
-7----11---9------------------------------------------------------------------ 
------------------------------------------------------------------------------  
-5----9----7------------------------------------------------------------------ 
------------------------------------------------------------------------------                                                                             

"I'm not the one, I can't pretend..." 
------------------------------------------------------------------------------ 
------------------------------------------------------------------------------ 
-4---------7--------7----4---2---2-------------------------------------------- 
-4---------7--------7----4---2---2---2---------------------------------------- 
-2---------5--------4----2---0---0---2---------------------------------------- 
-------------------------------------0---------------------------------------- 

Some stuff repeats with some palm muting, but I think thats it...


 
 
                                                                               
Comments