Sum 41 - Anic Chords & Tabs

 

Anic Chords & Tabs

Sum 41 Chords & Tabs

Version: 3 Type: Tab 0 ratings
1 star 2 stars 3 stars 4 stars 5 stars
comments

Anic Tab

A.N.I.C. - Sum 41
-------------------------------------------------------------------------------

Tabbed by:Robert Quinn
Email:rq412@yahoo.com

Tuning:standard

e|----------------x----------------------------------------------------------|
B|--------------x---0-0------------------------------------------------------|
G|-0-0-0-0-0-----------------------------------------------------------------|
D|-4-4-4-4-4--4----------------4--4------------------------------------------|
A|-4-4-4-4-4-------------------4--4------------------------------------------|
E|-3-3-3-3-3-------------------2--2------------------------------------------|

  You look like ass, you smell...
e|---------------------------------------------------------------------------|
B|---------------------------------------------------------------------------|
G|---------------7-7--7-4-4--------------------------------------------------|
D|-4-4--4-7-7--7-7-7--7-4-4--------------------------------------------------|
A|-4-4--4-7-7--5-5-5--5-2-2--------------------------------------------------|
E|-2-2--2-5-5--5-------------------------------------------------------------|

   You walk around like you're...
e|---------------------------------------------------------------------------|
B|---------------------------------------------------------------------------|
G|-4---------------7-7--7-4-4-4----------------------------------------------|
D|-4-4-4--4-7-7--7-7-7--7-4-4-4----------------------------------------------|
A|-2-4-4--4-7-7--7-5-5--5-2-2-2----------------------------------------------|
E|---2-2--2-5-5--5-----------------------------------------------------------|
[ Tab from: http://www.guitartabs.cc/tabs/s/sum_41/anic_tab_ver_3.html ]
Bound for agony...                  2X
e|---------------------------------------------------------------------------|
B|---------------------------------------------------------------------------|
G|-------------------------------------------5-------------------------------|
D|-2-------------2-------------2-------------5-5-----------------------------|
A|-2-------------2-------------2-------------3-5-----------------------------|
E|-0-0-0-0-0-0-0-0-0-0-0-0-0-0-0-0-0-0-0-0-0---3-----------------------------|
     \         /   \        /    \        /
      \       /     \      /      \      /
       \     /       \    /        \    /
       (P.M.)        (P.M.)        (P.M.)


  You look like ass, you smell...
e|---------------------------------------------------------------------------|
B|---------------------------------------------------------------------------|
G|---------------7-7--7-4-4--------------------------------------------------|
D|-4-4--4-7-7--7-7-7--7-4-4--------------------------------------------------|
A|-4-4--4-7-7--5-5-5--5-2-2--------------------------------------------------|
E|-2-2--2-5-5--5-------------------------------------------------------------|

   You walk around like you're...
e|---------------------------------------------------------------------------|
B|---------------------------------------------------------------------------|
G|-4---------------7-7--7-4-4-4----------------------------------------------|
D|-4-4-4--4-7-7--7-7-7--7-4-4-4----------------------------------------------|
A|-2-4-4--4-7-7--7-5-5--5-2-2-2----------------------------------------------|
E|---2-2--2-5-5--5-----------------------------------------------------------|

Bound for agony...                  2X
e|---------------------------------------------------------------------------|
B|---------------------------------------------------------------------------|
G|-------------------------------------------5-------------------------------|
D|-2-------------2-------------2-------------5-5-----------------------------|
A|-2-------------2-------------2-------------3-5-----------------------------|
E|-0-0-0-0-0-0-0-0-0-0-0-0-0-0-0-0-0-0-0-0-0---3-----------------------------|
     \         /   \        /    \        /
      \       /     \      /      \      /
       \     /       \    /        \    /
       (P.M.)        (P.M.)        (P.M.)
                 
   

  You're an asshole...       (4x)
e|---------------------------------------------------------------------------|
B|---------------------------------------------------------------------------|
G|---------------7-7--7-4-4--4-----------------------------------------------|
D|-4-4--4-7-7--7-7-7--7-4-4--4-----------------------------------------------|
A|-4-4--4-7-7--5-5-5--5-2-2--2-----------------------------------------------|
E|-2-2--2-5-5--5-------------------------------------------------------------|


100% correct :)
===============================================================================
Comments