Sum 41 - Anic Chords & Tabs

 

Anic Chords & Tabs

Sum 41 Chords & Tabs

Version: 2 Type: Tab 0 ratings
1 star 2 stars 3 stars 4 stars 5 stars
comments

Anic Tab

-------------------------------------------------------------------------------
			    Sum 41 - A.N.I.C
-------------------------------------------------------------------------------
						Vote on it, tell me if it sucks.
(this ones in Drop D)				

By:CrazyMofo2424 (Sum 41 really tried on this song...*cough*)

  Lala...
e|---------------------------------------------------------------------------|x2
B|---------------------------------------------------------------------------|
G|-------------7777--4444----------------------------------------------------|
D|-4444--7777--7777--4444----------------------------------------------------|
A|-4444--7777--5555--2222----------------------------------------------------|
D|-4444--7777----------------------------------------------------------------|

e|---------------------------------------------------------------------------|x2
B|---------------------------------------------------------------------------|
G|----------------------5----------------------------------------------------|
D|-2-xxxxxx-2-xxxxxx-2--5--5-------------------------------------------------|
A|-2-xxxxxx-2-xxxxxx-2--3--5-------------------------------------------------|
D|-2-xxxxxx-2-xxxxxx-2-----5-------------------------------------------------|
[ Tab from: http://www.guitartabs.cc/tabs/s/sum_41/anic_tab_ver_2.html ]
e|---------------------------------------------------------------------------|x2
B|---------------------------------------------------------------------------|
G|-------------7777--4444----------------------------------------------------|
D|-4444--7777--7777--4444----------------------------------------------------|
A|-4444--7777--5555--2222----------------------------------------------------|
D|-4444--7777----------------------------------------------------------------|

e|---------------------------------------------------------------------------|x2
B|---------------------------------------------------------------------------|
G|----------------------5----------------------------------------------------|
D|-2-xxxxxx-2-xxxxxx-2--5--5-------------------------------------------------|
A|-2-xxxxxx-2-xxxxxx-2--3--5-------------------------------------------------|
D|-2-xxxxxx-2-xxxxxx-2-----5-------------------------------------------------|

e|---------------------------------------------------------------------------|x2
B|---------------------------------------------------------------------------|
G|-------------7777--4444----------------------------------------------------|
D|-4444--7777--7777--4444----------------------------------------------------|
A|-4444--7777--5555--2222----------------------------------------------------|
D|-4444--7777----------------------------------------------------------------|

e|----then-he-bends-strangely------------------------------------------------|
B|---------------------------------------------------------------------------|
G|--------------------^14----------------------------------------------------|
D|---------------------------------------------------------------------------|
A|---------------------------------------------------------------------------|
D|---------------------------------------------------------------------------|
Comments