Sum 41 - All Shes Got Chords & Tabs

 

All Shes Got Chords & Tabs

Sum 41 Chords & Tabs

Version: 5 Type: Tab 0 ratings
1 star 2 stars 3 stars 4 stars 5 stars
comments

All Shes Got Tab

   
                                  ALL SHES GOT
                              As recorded by Sum 41
                   (From the 2001 Album ALL KILLER NO FILLER)

Words and Music by Sum 41
Arranged by Sum 41
Transcribed by Stephen Brown

Gtr I (E A D G B E) - 'Untitled'
Gtr II (E A D G B E) - 'Untitled'
Gtr III (E A D G B E) - 'Untitled'

 Verse
  Q=241
                        E5                 F#5
 4/4
  Gtr I
  W          W          Q  E E +E  E E E   Q  E E +E  E E E
|----------|----------|------------------|-------------------|
|----------|----------|------------------|-------------------|
|----------|----------|------------------|-------------------|
|----------|----------|------------------|------4-(4)--------|
|----------|----------|-2--2-2-(2)-2-2-2-|-4--4-4-(4)-4-4-4--|
|----------|----------|-0--0-0-(0)-0-0-0-|-2--2-2-(2)-2-2-2--|


  Q  Q  E E E E   Q  Q  E E E E   Q  Q  E E E E   Q  Q  E E E E
|---------------|---------------|---------------|---------------|
|---------------|---------------|---------------|---------------|
|----4--4-4-4---|---------------|---------------|---------------|
|-4--4--4-4-4---|---------------|---------------|---------------|
|-2--2--2-2-2-6-|-6--6--6-6-6-2-|-2--2--2-2-2-2-|-4--4--4-4-4-4-|
|-------------4-|-4--4--4-4-4-0-|-0--0--0-0-0-0-|-2--2--2-2-2-2-|


  Q  Q  E E E E   Q  Q  E E E E   Q  Q  E E E E   Q  Q  E E E E
|---------------|---------------|---------------|---------------|
|---------------|---------------|---------------|---------------|
|---------------|---------------|-4--4--4-4-4---|---------------|
|---------------|---------------|-4--4--4-4-4---|----6--6-6-6---|
|-2--2--2-2-2-2-|-4--4--4-4-4-4-|-2--2--2-2-2-6-|-6--6--6-6-6-2-|
|-0--0--0-0-0-0-|-2--2--2-2-2-2-|-------------4-|-4--4--4-4-4-0-|


 Half-time feel
  W          +H.      E E   W          +W
|----------|--------------|----------|--------||
|----------|--------------|----------|--------||
|----------|--------------|----------|--------||
|----------|--------------|----------|--------||
|-2--------|-(2)------4-4-|-4--------|-(4)----||
|-0--------|-(0)------2-2-|-2--------|-(2)----||


   Chorus
    $
    Q  Q  E E E E   Q  Q  E E E E   Q  Q  E E E E   Q Q  E E E E  6x
||----------------|---------------|---------------|---------------||
||o---------------|---------------|---------------|--------------o||
||--4--4--4-4-4-4-|---------------|---------------|---------------||
||--4--4--4-4-4-4-|---------------|---------------|---------------||
||o-2--2--2-2-2-2-|-2--2--2-2-2-2-|-4--4--4-4-4---|-2-2--2-2-2-2-o||
||----------------|-0--0--0-0-0-0-|-2--2--2-2-2-0-|-0-0--0-0-0-0--||


 Interlude
  Gtr I
                    ~~
  Q.  E +Q    Q     Q.    E +Q    Q     Q.    E +Q    Q     E Q.    E +Q    Q
|-----------------|-------------------|-------------------|--------------------|
|-----------------|-------------------|-------------------|--------------------|
|-----------------|-------------------|-------------------|--------------------|
|-4---2-(2)---1---|-2-----2-(2)---1---|-4-----2-(2)---1---|-2s4-----2-(2)---1--|
|-----------------|-------------------|-------------------|--------------------|
|-----------------|-------------------|-------------------|--------------------|
|
| Gtr II
| Q   Q  E  E E E   Q   Q    E  E E E   Q   Q    E  E E E   Q    Q  E  E  E E
|-----------------|-------------------|-------------------|--------------------|
|-----------------|-------------------|-------------------|--------------------|
|-4---4--4--4-4-4-|-------------------|-------------------|--------------------|
|-4---4--4--4-4-4-|-------------------|-------------------|--------------------|
|-2---2--2--2-2-2-|-2---2----2--2-2-2-|-4---4----4--4-4---|-2----2--2--2--2-2--|
|-----------------|-0---0----0--0-0-0-|-2---2----2--2-2-0-|-0----0--0--0--0-0--|


  Gtr I
  Q.  E E E Q     Q.    E E E Q     Q.    E +Q    Q     Q.    E +Q    Q
|---------------|-----------------|-------------------|--------------------||
|---------------|-----------------|-------------------|--------------------||
|---------------|-----------------|-------------------|--------------------||
|-----2-2-2-1---|-------2-2-2-1---|-------2-(2)---1---|-4-----2-(2)---1----||
|-2-------------|-2---------------|-2-----------------|--------------------||
|---------------|-----------------|-------------------|--------------------||
|
| Gtr II
| Q   Q E E E E   Q   Q   E E E E   Q   Q    E  E E E   Q   Q    E  E E E
|---------------|-----------------|-------------------|--------------------||
|---------------|-----------------|-------------------|--------------------||
|-4---4-4-4-4-4-|-----------------|-------------------|--------------------||
|-4---4-4-4-4-4-|-----------------|-------------------|--------------------||
|-2---2-2-2-2-2-|-2---2---2-2-2-2-|-4---4----4--4-4---|-2---2----2--2-2-2--||
|---------------|-0---0---0-0-0-0-|-2---2----2--2-2-0-|-0---0----0--0-0-0--||


 Verse
  Gtr I
  W          +W           +W              +W
|----------|------------|---------------|--------|
|----------|------------|---------------|--------|
|-4--------|-(4)--------|-(4)-----------|-(4)----|
|-x--------|------------|---------------|--------|
|-2--------|-(2)--------|-(2)-----------|-(2)----|
|----------|------------|---------------|--------|
|
| Gtr II
|                          >
| W           W           +H      H       +W
|----------|------------|---------------|--------|
|----------|------------|---------------|--------|
|----------|------------|---------------|--------|
|----------|------------|---------------|--------|
|-2--------|-(2)--------|-(2)----(2)----|-(2)----|
|----------|------------|---------------|--------|


   >
   W           +W           +W           +W
|------------|------------|------------|--------|
|------------|------------|------------|--------|
|-(4)--------|-(4)--------|-(4)--------|-(4)----|
|------------|------------|------------|--------|
|-(2)--------|-(2)--------|-(2)--------|-(2)----|
|------------|------------|------------|--------|


  Q  Q  H          W          W         W
|------------|----------|----------|--------|
|------------|----------|----------|--------|
|-4s=2-------|----------|----------|--------|
|-x----------|----------|----------|--------|
|-2----------|----------|----------|--------|
|------------|----------|----------|--------|


  W          W          W       H     H
|-------|----------|----------|-----------|
|-------|----------|----------|-----------|
|-------|----------|----------|-----------|
|-------|----------|----------|-----------|
|-------|----------|----------|-----------|
|-------|----------|----------|------14\--|


  Q  Q  E E E E   Q  Q  E E E E   Q  Q  E E E E   Q  Q  E E E E
|---------------|---------------|---------------|---------------|
|---------------|---------------|---------------|---------------|
|---------------|---------------|-4--4--4-4-4---|---------------|
|---------------|---------------|-4--4--4-4-4---|----6--6-6-6---|
|-2--2--2-2-2-2-|-4--4--4-4-4-4-|-2--2--2-2-2-6-|-6--6--6-6-6-2-|
|-0--0--0-0-0-0-|-2--2--2-2-2-2-|-------------4-|-4--4--4-4-4-0-|


 Half-time feel                                      End half-time feel
                                       D.S. al Coda
                                     PM----|
  W          +W           W          E E E E E E Q
|----------|------------|----------|---------------||-|
|----------|------------|----------|---------------||-|
|----------|------------|----------|---------------||-|
|----------|------------|----------|---------------||-|
|-2--------|-(2)--------|-4--------|-4-4-4-4-4-----||-|
|-0--------|-(0)--------|-2--------|-2-2-2-2-2-----||-|


  Q  Q  E E E E   Q  Q  E E E E   Q  Q  E E E E   Q  Q  E E E E
|---------------|---------------|---------------|---------------|
|---------------|---------------|---------------|---------------|
|-4--4--4-4-4-4-|---------------|---------------|---------------|
|-4--4--4-4-4-4-|---------------|---------------|---------------|
|-2--2--2-2-2-2-|-2--2--2-2-2-2-|-4--4--4-4-4---|-2--2--2-2-2-2-|
|---------------|-0--0--0-0-0-0-|-2--2--2-2-2-0-|-0--0--0-0-0-0-|

[ Tab from: http://www.guitartabs.cc/tabs/s/sum_41/all_shes_got_tab_ver_5.html ]
 Guitar Solo
  Gtr I
  Q.  E +Q    Q     Q.   E +Q   Q    Q.   E +Q   Q    Q.   E +Q   Q
|----------------|-----------------|----------------|---------------|
|----------------|-----------------|----------------|---------------|
|-9---9-(9)--11--|-11----9-(9)--8--|-9----8-(8)-----|-9----8-(8)----|
|----------------|-----------------|-------------9--|-------------9-|
|----------------|-----------------|----------------|---------------|
|----------------|-----------------|----------------|---------------|


  Q.   E +Q    Q     Q.   E +Q   Q    Q.   E +Q   Q    Q.   E +Q   Q
|-----------------|-----------------|----------------|----------------|
|-----------------|-----------------|----------------|----------------|
|-9----9-(9)--11--|-11----9-(9)--8--|-9----8-(8)-----|-9----8-(8)-----|
|-----------------|-----------------|-------------9--|-------------9--|
|-----------------|-----------------|----------------|----------------|
|-----------------|-----------------|----------------|----------------|


  Gtr I
   Q.     E  +Q     Q      Q.     E  +Q     Q
|------------------11---|-11--------------------|
|-12-----14-(14)--------|--------14-(14)---12---|
|-----------------------|-----------------------|
|-----------------------|-----------------------|
|-----------------------|-----------------------|
|-----------------------|-----------------------|
|
| Gtr II
|  Q.     E  +Q     Q      Q.     E  +Q     Q
|-----------------------|-----------------------|
|-----------------------|-----------------------|
|--9------9--(9)---11---|-11------9--(9)----8---|
|-----------------------|-----------------------|
|-----------------------|-----------------------|
|-----------------------|-----------------------|
|
| Gtr III
|  Q   E  E  +E  E  E E    Q   E  E  +E  E  E E
|-----------------------|-----------------------|
|-----------------------|-----------------------|
|-----------------------|-----------------------|
|--6---6--6--(6)-6--6-6-|--6---6--6--(6)-6--6-6-|
|--6---6--6--(6)-6--6-6-|--6---6--6--(6)-6--6-6-|
|--4---4--4--(4)-4--4-4-|--4---4--4--(4)-4--4-4-|


   Q.     E  +Q     Q      Q.     E  +Q     Q
|------------------11---|-11--------------------|
|-12-----14-(14)--------|--------14-(14)---12---|
|-----------------------|-----------------------|
|-----------------------|-----------------------|
|-----------------------|-----------------------|
|-----------------------|-----------------------|
|
|  Q.     E  +Q     Q      Q.     E  +Q     Q
|-----------------------|-----------------------|
|-----------------------|-----------------------|
|--9------9--(9)---11---|-11------9--(9)----8---|
|-----------------------|-----------------------|
|-----------------------|-----------------------|
|-----------------------|-----------------------|
|
|  Q   E  E  +E  E  E E    Q   E  E  +E  E  E E
|-----------------------|-----------------------|
|-----------------------|-----------------------|
|-----------------------|-----------------------|
|--4---4--4--(4)-4--4-4-|--4---4--4--(4)-4--4-4-|
|--4---4--4--(4)-4--4-4-|--4---4--4--(4)-4--4-4-|
|--2---2--2--(2)-2--2-2-|--2---2--2--(2)-2--2-2-|


   Q.    E  +H           Q.    E  H
|---------------------|------------------|
|-12------------------|-12----12---------|
|-------11-(11)-------|----------11------|
|---------------------|------------------|
|---------------------|------------------|
|---------------------|------------------|
|
|  Q.    E  +E  E E E    Q.    E  Q  E E
|---------------------|------------------|
|---------------------|------------------|
|---------------------|-/9-----9--9------|
|--2-----2--(2)-2-2-2-|-/9-----9--9------|
|--2-----2--(2)-2-2-2-|-/7-----7--7------|
|--0-----0--(0)-0-0-0-|--------------0-0-|


   Q.    E  +H           Q   E  E  E  E  E  E
|---------------------|-----------------------|
|-12------------------|-12--------------------|
|-------11-(11)-------|-----11-11-11-11-11-11-|
|---------------------|-----------------------|
|---------------------|-----------------------|
|---------------------|-----------------------|
|
|  Q.    E  +E  E E E    Q   E  E  E  E  E  E
|---------------------|-----------------------|
|---------------------|-----------------------|
|---------------------|-----------------------|
|--2-----2--(2)-2-2-2-|--2---2--2--2--2--2--2-|
|--2-----2--(2)-2-2-2-|--2---2--2--2--2--2--2-|
|--0-----0--(0)-0-0-0-|--0---0--0--0--0--0--0-|


 Bridge  Half-time feel
                                                          >
   ~~~~~~~~~~~~~~~~~~~~~~~~~~~~~~~~~~~~~~~~~~~~~~~~~~~~~~~~~~
   W           +W            +W            +W            +W
|-----------|-------------|-------------|-------------|---------|
|-12--------|-(12)--------|-(12)--------|-(12)--------|-(12)----|
|--4--------|--(4)--------|--(4)--------|--(4)--------|--(4)----|
|--x--------|--(x)--------|--(x)--------|--(x)--------|--(x)----|
|--2--------|--(2)--------|--(2)--------|--(2)--------|--(2)----|
|-----------|-------------|-------------|-------------|---------|


    >
    ~~~~~~~~~~~~~~~~~~~~~~~~~~~~~~~
    W            +W            +W
|-------------|-------------|------------------|
|-(12)--------|-(12)--------|-(12)-------------|
|-------------|-------------|------------------|
|-------------|-------------|------------------|
|-------------|-------------|------------------|
|-------------|-------------|------------------|
|
|   >
|   W            +W             E  E Q  E E Q
|-------------|-------------|------------------|
|-------------|-------------|------------------|
|--(4)--------|--(4)--------|---x--x----x-x----|
|-------------|-------------|---x--x----x-x----|
|--(2)--------|--(2)--------|---x--x----x-x----|
|-------------|-------------|------------------|


       W              W              W
|--------------|--------------|------------|
|--------------|--------------|------------|
|--------------|--------------|------------|
|--------------|--------------|------------|
|--------------|--------------|------------|
|--------------|--------------|------------|
|
| Q.   E Q  Q    E Q  E Q  Q    Q.   E H
|--------------|--------------|------------|
|--------------|--------------|------------|
|-4----4-4--4--|--------------|------------|
|-4----4-4--4--|-2-2--2-2--2--|-4----4-4---|
|-2----2-2--2--|-2-2--2-2--2--|-4----4-4---|
|-2----2-2--2--|-0-0--0-0--0--|-2----2-2---|


                                                                     End Half time feel
                                                       D.S. al Coda
  E Q  E Q  Q    Q.   E Q  Q    E Q  E Q  Q    H    E E Q       W
|--------------|--------------|--------------|-------------|-------||-|
|--------------|--------------|--------------|-------------|-------||-|
|--------------|-4----4-4--4--|--------------|-------------|-------||-|
|-2-2--2-2--2--|-4----4-4--4--|-2-2--2-2--2--|-4----4------|-------||-|
|-2-2--2-2--2--|-2----2-2--2--|-2-2--2-2--2--|-4----4------|-------||-|
|-0-0--0-0--0--|-2----2-2--2--|-0-0--0-0--0--|-2----2------|-------||-|


  &
  Q  Q  E E E E   Q  Q  H      W          +W
|---------------|------------|----------|--------*|
|---------------|------------|----------|--------*|
|---------------|------------|-4--------|-(4)----*|
|---------------|------------|-4--------|-(4)----*|
|-4--4--4-4-4---|-2----------|-2--------|-(2)----*|
|-2--2--2-2-2-0-|-0----------|-2--------|-(2)----*|


Duration Legend
---------------
W - whole; H - half; Q - quarter; E - 8th; S - 16th; T - 32nd; X - 64th; a - acciaccatura
+ - note tied to previous; . - note dotted; .. - note double dotted
Uncapitalized letters represent notes that are staccato (1/2 duration)
Irregular groupings are notated above the duration line
Duration letters will always appear directly above the note/fret number it represents the
duration for.  Duration letters with no fret number below them represent rests.  Multi-
bar rests are notated in the form Wxn, where n is the number of bars to rest for.  Low
melody durations appear below the staff

Tablature Legend
----------------
 h   - hammer-on
 p   - pull-off
 b   - bend
 pb  - pre-bend
 r   - bend release (if no number after the r, then release immediately)
 /\  - slide into or out of (from/to "nowhere")
 s   - legato slide
 S   - shift slide
  - natural harmonic
[n]  - artificial harmonic
n(n) - tapped harmonic
 ~   - vibrato
 tr  - trill
 T   - tap
 TP  - trem. picking
 PM  - palm muting
\n/  - tremolo bar dip; n = amount to dip
 \n  - tremolo bar down
 n/  - tremolo bar up
/n\  - tremolo bar inverted dip
 =   - hold bend; also acts as connecting device for hammers/pulls
 <>  - volume swell (louder/softer)
 x   - on rhythm slash represents muted slash
 o   - on rhythm slash represents single note slash

Misc Legend
-----------
 |  - bar
||  - double bar
||o - repeat start
o|| - repeat end
*|  - double bar (ending)
 :  - bar (freetime)
 $  - Segno
 &  - Coda
Tempo markers -  = BPM(8/16=s8/s16), where s8 = swing 8ths, s16 = swing 16ths
Comments