Sum 41 - All Shes Got Chords & Tabs

 

All Shes Got Chords & Tabs

Sum 41 Chords & Tabs

Version: 4 Type: Tab 0 ratings
1 star 2 stars 3 stars 4 stars 5 stars
comments

All Shes Got Tab

   
Song: All she's got
Artist: Sum 41
Tuning: Standard
ftolone@hotmail.com

I saw there was no tab for this song, the coolest of "All killer no filler", so I 
decided to tab it. Mail me any corrections. 

Verse 1 (each hit 6 times)             end on
e-------------------------------------|--------------------
B-------------------------------------|--------------------
G----------4-----------------------4--|--------------------
D--2---4---4---6---2---4---2---4---4--|--2---2-2---4-------
A--2---4---2---6---2---4---2---4---2--|--2---2-2---4-------
E--0---2-------4---0---2---0---2------|--0---0-0---2-------
("This place reminds me of...")

Chorus
e----------------------------------------------------------
B----------------------------------------------------------
G--4-4-4-4-4-4---------------------------------------------
D--4-4-4-4-4-4--2-2-2-2-2-2--4-4-4-4-4-4--2-2-2-2-2-2------
A--2-2-2-2-2-2--2-2-2-2-2-2--4-4-4-4-4-4--2-2-2-2-2-2------
E---------------0-0-0-0-0-0--2-2-2-2-2-2--0-0-0-0-0-0------
("Believe her...")

Riff 1                                 Fill
e-------------------------------------|--------------------
B-------------------------------------|--------------------
G-------------------------------------|--------------------
D-----2-1-----2-1-----2-1--2/4--2--1--|--9\----------------
A--2-------2-------2------------------|--9\----------------
E-------------------------------------|--7\----------------
[ Tab from: http://www.guitartabs.cc/tabs/s/sum_41/all_shes_got_tab_ver_4.html ]
Verse 2 (each hit 6 times)
e------------------|---------------------------------------
B------------------|-(end on:)-----------------------------
G----------4-------|---------------------------------------
D--2---4---4---6---|--2---4---x-x-x-x---4------------------
A--2---4---2---6---|--2---4---x-x-x-x---4------------------
E--0---2-------4---|--0---2---x-x-x-x---2------------------
("But for now...")

Solo A (Guitar 1)
e----------------------------------------------------------
B----------------------------------------------------------
G--8-9-11-11-9-8--9-8---9-8----8-9-11-11-9-8--9-8---9-8----
D---------------------9-----9---------------------9-----9--
A----------------------------------------------------------
E----------------------------------------------------------

(continued)
e----------------------------------------------------------
B----------------------------------------------------------
G--8-9-11-11-9-8--8-9-11-11-9-8----------------------------
D--------------------------------9^---9^---9^-------9^-----
A----------------------------------------------------------
E----------------------------------------------------------

Solo B (Guitar 2)
e--7-9-11-11-9-7--7-9-11-11-9-7--7----7----7----7----7^----
B----------------------------------7^---7^---7^---7^-------
G----------------------------------------------------------
D----------------------------------------------------------
A----------------------------------------------------------
E----------------------------------------------------------

Riff 2 (each hit 4 times)                Outro
e--------------------------------------|-------------------
B--------------------------------------|-------------------
G------4---------------4---------------|--4----------------
D--x---4---2---4---2---4---2---4---x---|--4----------------
A--x---2---2---4---2---2---2---4---x---|--2----------------
E--x-------0---2---0-------0---2---x---|-------------------
("It's times like this...")

Verse 1
Chorus
Chorus, Riff 1
Fill
Verse 2
Chorus
Chorus, Solo A
Chorus, Solo A, B
Riff 2
Chorus
Outro
Comments