Sum 41 - 88 Chords & Tabs

 

88 Chords & Tabs

Sum 41 Chords & Tabs

Version: 1 Type: Bass Tab

88 Bass Tab

|----------------|----------------|----------------|----------------|
|----------------|----------------|----------------|----------------|
|----------------|3-3-3-3-3-3-3-3-|----------------|2-2-2-2-2-2-2-2-| 4x
|0-0-0-0-0-0-0-0-|----------------|3-3-3-3-3-3-3-3-|----------------|


|----------------|----------------|----------------|----------------|
|----------------|----------------|----------------|----------------|
|----------------|5-5-5-5-5-5-5-5-|3-3-3-3-3-3-3-3-|----------------| 2x
|7-7-7-7-7-7-7-7-|----------------|----------------|3-3-3-3-3-3-3-3-|

|----------------|----------------|----------------|----------------|
|----------------|----------------|----------------|----------------|
|3-3-3-3-3-3-3-3-|----------------|5-5-5-5-5-5-5-5-|7-7-7-7-7-7-7-7-|
|----------------|3-3-3-3-3-3-3-3-|----------------|----------------|

|----------------|----------------|----------------|----------------|
|----------------|----------------|----------------|----------------|
|3-3-3-3-3-3-3-3-|5-5-5-5-5-5-5-5-|----------------|----------------|
|----------------|----------------|3-3-3-3-3-3-3-3-|3-3-3-3-3-3-3-3-|


|----------------|----------------|----------------|----------------|
|----------------|----------------|----------------|----------------|
|--------2-2-2-2-|--------2-2-2-2-|--------5-5-5-5-|--------2-2-2-2-| 2x
|0-0-0-0---------|3-3-3-3---------|0-0-0-0---------|3-3-3-5---------|


|----------------|----------------|----------------|----------------|
|----------------|----------------|----------------|----------------|
|2---2---2---2-2-|2---2---2---2-2-|3-3-3-3-3-3-3-3-|----------------|
|----------------|----------------|----------------|3-3-3-3-3-3-3-3-|

|----------------|----------------|----------------|----------------|
|----------------|----------------|----------------|----------------|
|2---2---2---2-2-|2---2---2---2-2-|3-3-3-3-3-3-3-3-|5-5-5-5-5-5-5-5-|
|----------------|----------------|----------------|----------------|

[ Tab from: http://www.guitartabs.cc/tabs/s/sum_41/88_btab.html ]
|----------------|----------------|----------------|----------------|
|----------------|----------------|----------------|----------------|  
|7-7-7-7-7-7-7-7-|5-5-5-5-5-5-5-5-|3-3-3-3-3-3-3-3-|----------------| 2x 
|----------------|----------------|----------------|3-3-3-3-3-3-3-3-|


|----------------|----------------|----------------|----------------|
|----------------|----------------|----------------|----------------|
|3-3-3-3-3-3-3-3-|----------------|5-5-5-5-5-5-5-5-|7-7-7-7-7-7-7-7-|
|----------------|3-3-3-3-3-3-3-3-|----------------|----------------|


|----------------|----------------|
|----------------|----------------|
|5-5-5-5-5-5-5-5-|7-7-7-7-7-7-7-7-|
|----------------|----------------|


|----------------|----------------|----------------|----------------|
|----------------|----------------|----------------|----------------|
|----------------|3-3-3-3-3-3-3-3-|----------------|2-2-2-2-2-2-2-2-|  2x
|0-0-0-0-0-0-0-0-|----------------|3-3-3-3-3-3-3-3-|----------------|




Breakdown                             
|----------------|----------------| 
|----------------|----------------| 
|----------------|----------------|  
|0-0----0-0------|0-0----0-0------|




 |----------------|
 |----------------|
 |----------------| 5x
 |0000*---0000*---|


|----------------|----------------|----------------|
|----------------|----------------|----------------|
|----------------|----------------|----------------|  
|0-0-0-0---------|-0-0-0-0--------|-0-0-0-0--------|

|----------------|----------------|----------------|
|----------------|----------------|----------------|
|----------------|----------------|----------------|  
|0-0-0-0---------|-0-0-0-0--------|-0-0-0-0-2------|


|----------------|----------------|
|----------------|----------------|
|----------------|----------------| 
|0-0-0-0---------|-0-0-0-0-3------|


|----------------|----------------|
|----------------|----------------|
|----------------|----------------| 
|0-0-0-0---------|-0-0-0-0-2------|