Suicide Machines - With Sunshine Chords & Tabs

 

With Sunshine Chords & Tabs

Suicide Machines Chords & Tabs

Version: 2 Type: Bass Tab 0 ratings
1 star 2 stars 3 stars 4 stars 5 stars
comments

With Sunshine Bass Tab

note to archiever: this is a correction to a version i sent in earlier

song: with subshine
artists:suicide machines
album:green world
tabbed by:samuel barker

intro riff:
G-/------------/
D-/------------/
A-/------------/
E-/-0------3-5-/

[ Tab from: http://www.guitartabs.cc/tabs/s/suicide_machines/with_sunshine_btab_ver_2.html ]
1st verse part:
G-/--------------------------/
D-/-2-2-2-2-2-2--------------/
A-/--------------4-4-4-4-0-2-/
E-/--------------------------/


2nd verse part:
G-/-----------------/
D-/-------------2-2-/
A-/-0-0-0-0-2-2-----/
E-/-----------------/

chorus:
G-/-------------------------------/
D-/-------------------------------/
A-/-----------------3-3-3-2-2-0-0-/
E-/-0-0-0-0-0-0-0-0---------------/


outro:
G-/--------------/
D-/--------------/
A-/------------7-/
E-/-0------3-5---/

end 


Comments