Suicide Machines - Unbreakable Chords & Tabs

 

Unbreakable Chords & Tabs

Suicide Machines Chords & Tabs

Version: 1 Type: Tab 0 ratings
1 star 2 stars 3 stars 4 stars 5 stars
comments

Unbreakable Tab

Unbreakable
by The Suicide Machines

This is the first tab I posted.
I noticed barley anyone made tabs for The Suicide Machines, hint, hint.
To help me i used a winamp plug-in called AnalogX Vocal
Remover. And my tab is very accurate!Remember to crank up
the distortion. 
so here it is!

intro
|--------------------------|
|--------------------------|
|--------------------------|
|-3---6-6---8-8--5-7-5-6---|
|--------------------------|
|--------------------------|

this part plays once after the intro and once after the verse
|---------------------------|
|---------------------------|
|---------------------------|
|-7--7--7--7--7-7-7-7-7-7-7-|
|-7--7--7--7--7-7-7-7-7-7-7-|
|-5--5--5--5--5-5-5-5-5-5-5-|

verse
|------------------------------------------------|
|------------------------------------------------|
|------------------------------------------------|
|-5-5--5-5-5--7-7--7-7-7--4-4--4-4-4--7-7--7-7-7-|
|-5-5--5-5-5--7-7--7-7-7--4-4--4-4-4--7-7--7-7-7-|
|-3-3--3-3-5--5-5--5-5-5--2-2--2-2-2--5-5--5-5-5-|

|------------------------|
|------------------------|
|------------------------|
|-5-5--5-5-5--7-7--7-7-7-|
|-5-5--5-5-5--7-7--7-7-7-|
|-3-3--3-3-3--5-5--5-5-5-|
this plays once right after the verse
|------------------------------------------------------|
|------------------------------------------------------|
|------------------------------------------------------|
|-4-4--4-4-4--4-4-4--4-4-4--4-4-4--4-4-4--4-4-4--4-4-4-|
|-4-4--4-4-4--4-4-4--4-4-4--4-4-4--4-4-4--4-4-4--4-4-4-|
|-2-2--2-2-2--2-2-2--2-2-2--2-2-2--2-2-2--2-2-2--2-2-2-|


[ Tab from: http://www.guitartabs.cc/tabs/s/suicide_machines/unbreakable_tab.html ]
chorse
|----------------------------------------------|
|----------------------------------------------|
|-6--8-8-9-8-5--7-7-8-7-9--9-9-8--8-8-6--6-6-4-|
|-6--8-8-9-8-5--7-7-8-7-9--9-9-8--8-8-6--6-6-4-|
|-4--6-6-7-6-3--5-5-6-5-7--7-7-6--6-6-4--4-4-2-|
|----------------------------------------------|
                        repete 2x
|----------------------|-----------------------|
|----------------------|-----------------------|
|-6--8-8-9-8-5--7-7-8-7|9--9-9-8--8-8-6--6-6-4-|
|-6--8-8-9-8-5--7-7-8-7|9--9-9-8--8-8-6--6-6-4-|
|-4--6-6-7-6-3--5-5-6-5|7--7-7-6--6-6-4--4-4-2-|
|----------------------|-----------------------|

final chorse   "remember to play harder"
|----------------------------------------------|
|----------------------------------------------|
|-6--8-8-9-8-5--7-7-8-7-9--9-9-8--8-8-6--6-6-4-|
|-6--8-8-9-8-5--7-7-8-7-9--9-9-8--8-8-6--6-6-4-|
|-4--6-6-7-6-3--5-5-6-5-7--7-7-6--6-6-4--4-4-2-|
|----------------------------------------------|
                          repete 4x                
|----------------------|-----------------------|---|
|----------------------|-----------------------|---|
|-6--8-8-9-8-5--7-7-8-7|9--9-9-8--8-8-6--6-6-4-|-4-|
|-6--8-8-9-8-5--7-7-8-7|9--9-9-8--8-8-6--6-6-4-|-4-|
|-4--6-6-7-6-3--5-5-6-5|7--7-7-6--6-6-4--4-4-2-|-2-|
|----------------------|-----------------------|---|

bridge #1
|------------------------------------------------|
|------------------------------------------------|
|------------------------------------------------|
|-6-6--6-6-6--4-4--4-4-4--7-7--7-7-7--7-7-7--7-7-|
|-6-6--6-6-6--4-4--4-4-4--7-7--7-7-7--7-7-7--7-7-|
|-4-4--4-4-4--2-2--2-2-2--5-5--5-5-5--5-5-5--5-5-|
bridge #2
|--------------------------|
|--------------------------|
|-6--8-8-9-8-5--5-5-5-7--8-|
|-6--8-8-9-8-5--5-5-5-7--8-|
|-4--6-6-5-6-3--3-3-3-5--6-|
|--------------------------|
play once after bridge #2 is over
|---------------------------|
|---------------------------|
|-8-8-8-8-8-8-8-8-----------|
|-8-8-8-8-8-8-8-8-7--7--7--7|
|-6-6-6-6-6-6-6-6-7--7--7--7|
|-----------------5--5--5--5|



order:

intro 4x
verse
chorse
verse
chorse
bridge #1 2x
bridge #2 4x
verse
chorse
final chorse

Hope you enjoy, cause I did...   remember to use AnalogX Vocal remover @analogx.com and go to winamp.com.

any corrections or coments emale me vert_sk8er2002@yahoo.com
Comments