Suicide Machines - Too Much Chords & Tabs

 

Too Much Chords & Tabs

Suicide Machines Chords & Tabs

Version: 1 Type: Bass Tab 0 ratings
1 star 2 stars 3 stars 4 stars 5 stars
comments

Too Much Bass Tab

Suicide Machines
Bass Tablature for Too Much

Verse and Intro: (Repeat 1x)
G:--------------------------------
D:--------------------------------
A:6-6-------------6-6-------------
E:----6-6-4-4-6-6-----6-6-4-4-6---

"My heart is pounding blood into my head!": (Repeat 2x)
G:--------------------------------
D:------------------3-4-3---3-4-3-
A:--1-2-1---3-4-3-4-------4-------
E:2-------4-----------------------
[ Tab from: http://www.guitartabs.cc/tabs/s/suicide_machines/too_much_btab.html ]
Chorus:
G:-----------------------------------------------
D:-----------------------------------------------
A:----------------------------------------4-4-4-4
E:2-2-2-2-4---2-2-2-2-4---2-2-2-2-4-4-4-4--------

Reggae Middle part:
G:---------------------------------------------------------
D:-----------------8-5----8-5-----------------5-6-8-6-5----
A:---8-5----6-3-6------6---------8-5----6-3-6-----------8-6
E:6------4--------------------6------4---------------------

"Pick it up"...:
G:-----------------------------------------------
D:-----------------------------------------------
A:---8-5----6-3----8-5----6-3-----8-5----6-3-6---
E:6------4------6------4-------6------4----------

Figured out and written by Fidget (hoepfner@lcm.macomb.lib.mi.us)




Comments