Suicide Machines - Sometimes I Dont Mind Chords & Tabs

 

Sometimes I Dont Mind Chords & Tabs

Suicide Machines Chords & Tabs

Version: 1 Type: Bass Tab 0 ratings
1 star 2 stars 3 stars 4 stars 5 stars
comments

Sometimes I Dont Mind Bass Tab

   
-------------------------------------------------------------------------------
			     Sometimes I Don't Mind - Suicide Machines
-------------------------------------------------------------------------------

By:LeChuza202- I Did This Tab Because Its One Of The Most Coolest Bass Parts And
  


-------------------------------------------------------------------------------
			     Sometimes I Don't Mind - Suicide Machines
-------------------------------------------------------------------------------

By:LeChuza202- I Did This Tab Because Its One Of The Most Coolest Bass Parts And
               Nobody Dared To Tab This Bass Part Out So I Said, "I'll Do It!"
                          (***Listen To Song For Exact Timing!***)

KEY: ~ -Let Ring 
     p -Pull Off
     h -Hammer
     

  Intro/Chorus/Solo
G|---------------------------------------------------------------------------|
D|-1-1-111-------------------------------------------------------------------|
A|--------1-1-1111-------------3344------------------------------------------|
E|----------------4-4-444-4-466----------------------------------------------|

  1ST Verse
G|---------------------------------------------------------------------------------|
D|----------------1~-1~---------------------------------1~-1~----------------------|
A|-------------1h3-----4P3-4~-4~-4~-4-3-1------------1h3-----4p3-4~-4~-4~-44444444-|
E|--4~-4~-4~-4~---------------------------4~-4~-4~-4~------------------------------|
[ Tab from: http://www.guitartabs.cc/tabs/s/suicide_machines/sometimes_i_dont_mind_btab.html ]
  2nd Verse (This Is Kinda Tricky)
G|-------------------------------------------------------------------------------------|
D|-----------------------------------5h8-6-5--5h8-6-5--3h6-3---3h6-3---3h6-3-----------|
A|---3h6-3---3h6-3---3h6-3---3h6-3--6--------6--------4-----4-4-----4-4-----4-44444444-|
E|--4-----4-4-----4-4-----4-4-----4----------------------------------------------------|

  Fill (IT Is In The End Of The Second Chrous) 
G|---------------------------------------------------------------------------|
D|--6655---------------------------------------------------------------------|
A|------8866-----------------------------------------------------------------|
E|----------99886644---------------------------------------------------------|

  3rd Verse
G|--------------------------------------------------------------------------------|
D|---------------1~-1~----------------------------------------------------5h8-6-5-|
A|------------1h3-----4p3-4~-4~-4~-4-3-1--3h6-3---3h6-3---3h6-3---3h6-3--6--------|
E|--4~-4~-4~-4---------------------------4-----4-4-----4-4-----4-4-----4----------|

  3rd Verse (Continued)
G|---------------------------------------------------------------------------|
D|---5h8-6-5--3h6-3---3h6-3---3h6-3------------------------------------------|
A|--6--------4-----4-4-----4-4-----4-44444444--------------------------------|
E|---------------------------------------------------------------------------|
  
  Outro 
G|---------------------------------------------------------------------------|
D|---------------------------------------------------------------------------|
A|---------------------------------------------------------------------------|
E|-4-4-444-4-4-4-4444-4-4-444-4-44-4444-4-4-4444-44-4444-4~------------------|

===============================================================================


Comments