Suicide Machines - Someone Chords & Tabs

 

Someone Chords & Tabs

Suicide Machines Chords & Tabs

Version: 1 Type: Bass Tab 0 ratings
1 star 2 stars 3 stars 4 stars 5 stars
comments

Someone Bass Tab

SONG: SOMEONE 
BAND: SUICIDE MACHINES 
ALBUM: BATTLE HYMNS 
TABBED BY: BEN MEYER benm@oakweb.com 




INTRO: 
G:----------------------------------- 
D:----------------------------------- 
A:-3----------3--------3----------3-- 
E:----------------------------------- 



VERSE(PUNK): 

G:----------------------------------------------- 
D:----------------------------------------------- 
A:-3-3-3-3-3-3----------------------------------- 
E:---------------3-3-3-3-3-3-5-5-5-5-5-1-1-1-1-1- 


[ Tab from: http://www.guitartabs.cc/tabs/s/suicide_machines/someone_btab.html ]
CHORUS (LOOKING FOR SOMEONE....): 

G:------------------------------------------- 
D:---------------------------4-5-7-5-4------- 
A:-5-5-------2-3-------5------------------5-- 
E:------3----------5------------------------- 



SLOWED DOWN INSTRUMENTAL THING: 

G:-------------------4------6------77-6-5------ 
D:--------------5-------7------------------7-5- 
A:--5------5----------------------------------- 
E:-----5--------------------------------------- 



I HAVEN'T COMPLETEED THE WHOLE SONG YET BUT IT WILL BE DONE ON MY
NEXT UPDATE
Comments