Suicide Machines - Politics Of Humanity Chords & Tabs

 

Politics Of Humanity Chords & Tabs

Suicide Machines Chords & Tabs

Version: 1 Type: Tab 0 ratings
1 star 2 stars 3 stars 4 stars 5 stars
comments

Politics Of Humanity Tab

suicide machines
politics of humanity

i think this tab is right but if it isnt and you know the problem
feel free to copy it and make any corrections.

*INTRO*
|------------------------------------
|------------------------------------
|------------------------------------
|10--10--10--10--10--10--10-10-12-12-	2X
|------------------------------------
|------------------------------------

----------------------------------------------------------------------------------------------
----------------------------------------------------------------------------------------------
----------------------------------------------------------------------------------------------
10--10--10--10--10--10--10-10-14-14--14--14--14--14--14-14-10-12--12--12--12--12--12--12--12--
----------------------------------------------------------------------------------------------
----------------------------------------------------------------------------------------------

*riff*
|------------------------------------
|------------------------------------
|------------------------------------
|10--10--10--10--10--10--10-10-12-12-	2X
|8---8---8---8---8---8---8--8--10-10-
|------------------------------------

----------------------------------------------------------------------------------------------|
----------------------------------------------------------------------------------------------|
----------------------------------------------------------------------------------------------|
10--10--10--10--10--10--10-10-14-14--14--14--14--14--14-14-10-12--12--12--12--12--12--12--12--|
8---8---8---8---8---8---8--8--12-12--12--12--12--12--12-12-8--10--10--10--10--10--10--10--10--|
----------------------------------------------------------------------------------------------|
[ Tab from: http://www.guitartabs.cc/tabs/s/suicide_machines/politics_of_humanity_tab.html ]
*verse*
|------------------------------------------------------|
|------------------------------------------------------|
|------------------------------------------------------|
|10-10--10--10--10--10--10-10-12-12--12--12--12--12-12-|
|------------------------------------------------------|
|------------------------------------------------------|

*chorus*
|---------|---------|---------|---------|
|---------|---------|---------|---------|
|---------|-6--6--6-|-6--6--6-|---------|
|-6--6--6-|-x--x--x-|-4--4--4-|---------|
|-4--4--4-|-4--4--4-|---------|-6--6--6-|
|---------|---------|---------|-4--4--4-|

*bridge*
|--------------------|---------------------|------------------------------------
|--------------------|---------------------|------------------------------------
|--------------------|---------------------|------------------------------------
|--------------------|-3--3--3--3--3--3--3-|------------------------------------
|3--3--3--3--3--3--3-|---------------------|-5--5--5--5--5--5--5--5--5--5--5--5-
|--------------------| p  p  p  p  p  p  p |------------------------------------
 p  p  p  p  p  p  p                         p  p  p  p  p  p  p

----------------------------------------------------------------------------------
----------------------------------------------------------------------------------
----------------------------------------------------------------------------------
--3--3--3--3--3--3--3--1--1--1--1--1--1--1--5--5--5--5--5--5--5--3--3--3--5--5--5-
--5--5--5--5--5--5--5--3--3--3--3--3--3--3--7--7--7--7--7--7--7--5--5--5--7--7--7-
----------------------------------------------------------------------------------

--------------------|---------------------|------------------------------------
--------------------|---------------------|------------------------------------
--------------------|---------------------|------------------------------------
--------------------|-3--3--3--3--3--3--3-|------------------------------------
5--5--5--5--5--5--5-|---------------------|-3--3--3--3--3--3--3--3--3--3--3--3-
--------------------| p  p  p  p  p  p  p |------------------------------------
 p  p  p  p  p  p  p                        p  p  p  p  p  p  p

*ORDER*
intr______2x
riff______2x
verse_____4x
chorus____4x
verse_____4x
chorus____4x
bridge____1x
riff______2x
chorus____8x
Comments