Suicide Machines - Permanent Holiday Chords & Tabs

 

Permanent Holiday Chords & Tabs

Suicide Machines Chords & Tabs

Version: 1 Type: Tab 0 ratings
1 star 2 stars 3 stars 4 stars 5 stars
comments

Permanent Holiday Tab

Permanent Holiday
By The Suicide Machines
Tabbed by SuMa
Note: For this song, if you have a 5-way pickup switch, use bridge & middle pickups 
(if you have a 3-way, use bridge) w/ tone knob at 10
Have your amp at gain=3.5, treble=8, middle=8, bass=10, presence=10
Standard tuning (eBGDAE)
Oh yeah, I almost forgot: THIS TAB IS 100% ACCURATE, SO TAKE THAT!  I am the biggest 
Suicide Machines fan in existence, so I’ve played this to the cd SEVERAL HUNDRED times 
to make sure it was right. One more thing: if you are just a beginner and want an easier 
way to play it, have your guitar in Drop-D (eBGDAD) and just add 2 frets to what I put 
for the E string

/ = slide up
\ = slide down
* = palm mute
x = regular mute

Intro
e|-------------------------------------------|
B|-------------------------------------------|
G|-------------------------------------------|
D|--2--3-4--9-9-9—-8\7\—-2--3-4—-9-9-9—-8\7--|
A|--2--3-4--9-9-9—-8\7\—-2--3-4—-9-9-9—-8\7--|
E|--0--1-2--7-7-7—-6\5\--0--1-2—-7-7-7—-6\5--|
            * *                  * *

Loud Intro
(play this part with more force than the 1st part.  More volume, too)
e|-------------------------------------------------------|
B|-------------------------------------------------------|
G|-------------------------------------------------------|
D|--14\2-2--3-4--9-9-9--8\7\--2--3-4--9-9-9--8\7\--------|
A|--14\2-2--3-4--9-9-9--8\7\--2--3-4--9-9-9--8\7\--------|
E|--12\0-0--1-2--7-7-7--6\5\--0--1-2--7-7-7--6\5\--------|
                 * *                  * *

Chorus
e|----------------------------|
B|----------------------------|
G|--4-x--9-9-x--11-11-x--4-4--|
D|--4-x--9-9-x--11-11-x--4-4--|
A|--2-x--7-7-x---9--9-x--2-2--|
E|----------------------------|

[ Tab from: http://www.guitartabs.cc/tabs/s/suicide_machines/permanent_holiday_tab.html ]
Verse 
e|-----------------------------------------------------------------|
B|-----------------------------------------------------------------|
G|----------------------------------4-4-4-4-4-4-4-4-9-9-9-9-9-9-9-9|
D|--4-4-4-4-4-4-4-4-2-2-2-2-2-2-2-2-4-4-4-4-4-4-4-4-9-9-9-9-9-9-9-9|
A|--4-4-4-4-4-4-4-4-2-2-2-2-2-2-2-2-2-2-2-2-2-2-2-2-7-7-7-7-7-7-7-7|
E|--2-2-2-2-2-2-2-2-0-0-0-0-0-0-0-0--------------------------------|


the rhythm for this part of the verse is not a bunch of eighths anymore, so listen to the 
cd to figure it out
e|----------------------------------------------|
B|----------------------------------------------|
G|----------------------------------------------|
D|--7-7-7--7-9-9-9-9-9--14-14-14--14-9-9-9-9-9--|
A|--7-7-7--7-9-9-9-9-9--14-14-14--14-9-9-9-9-9--|
E|--5-5-5--5-7-7-7-7-7--12-12-12--12-7-7-7-7-7--|


e|----------------------------------------------|
B|----------------------------------------------|
G|----------------------------------------------|
D|--7-7-7--7-9-9-9-9-9--14-14-14--14-9-9-9-9-9--|
A|--7-7-7--7-9-9-9-9-9--14-14-14--14-9-9-9-9-9--|
E|--5-5-5--5-7-7-7-7-7--12-12-12--12-7-7-7-7-7--|

Back to eighths
e|-----------------------------------|
B|-----------------------------------|
G|-----------------------------------|
D|--4-4-4-4-4-4-4-4-2-2-2-2-2-2-2-2--|
A|--4-4-4-4-4-4-4-4-2-2-2-2-2-2-2-2--|
E|--2-2-2-2-2-2-2-2-0-0-0-0-0-0-0-0--|


Bridge
e|----------------------------|
B|----------------------------|
G|----------------------------|
D|--9-x-7-7-x-14-14-x-9-9--9--|
A|--9-x-7-7-x-14-14-x-9-9--9--|
E|--7-x-5-5-x-12-12-x-7-7--7--|


Outro (Let these chords ring, but immediately mute the final one)
e|--------------------|
B|--------------------|
G|------------4----4--|
D|--4----2----4----4--|
A|--4----2----2----2--|
E|--2----0------------|


Order:
Intro
Loud Intro
Chorus 4x
Verse
Chorus 4x
Verse
Bridge 4x
Intro 2x
Chorus 8x
Outro

This the best song in the world, and a hell of a lot of fun to play, so enjoy!
Comments