Suicide Machines - Numbers Chords & Tabs

 

Numbers Chords & Tabs

Suicide Machines Chords & Tabs

Version: 2 Type: Bass Tab 0 ratings
1 star 2 stars 3 stars 4 stars 5 stars
comments

Numbers Bass Tab

Song:numbers
Band:suicide machines
Album:the new one
tabbed by:chris


G:----------------------------------------------------------------------------
D:----------------------------------------------------------------------------
A:--------3333-------3333-------5-2----------3333-0---------------------------
E:-3333-------3333-------3333-----3-3333--------------------------------------

[ Tab from: http://www.guitartabs.cc/tabs/s/suicide_machines/numbers_btab_ver_2.html ]
G:----------------------------------------------------------------------------
D:----------------------------------------------------------------------------
A:-------3333-5555-3333---333--333---333--333---------------------------------
E:3333------------------------3-----3------3------3---------------------------


G:----------------------------------------------------------------------------
D:---------------3333-5555----------------3333-5555---------------------------
A:3333-5555----------------3333-5555------------------------------------------
E:----------------------------------------------------------------------------


G:----------------------------------------------------------------------------
D:---------33333---------3--5-------------33333---------3-5-------------------
A:33333---------33333-------3-33333---------33333-----3-----------------------
E:----------------------------------------------------------------------------


Comments