Suicide Machines - No Face Chords & Tabs

 

No Face Chords & Tabs

Suicide Machines Chords & Tabs

Version: 1 Type: Bass Tab 0 ratings
1 star 2 stars 3 stars 4 stars 5 stars
comments

No Face Bass Tab

HERE IS THE BASS TAB FOR  THE "SUICIDE MACHINES" SONG NO FACE.

Verse:     (Repeat until Chorus)

G:---------------------------------------------------------------------------------------|
D:5------------2-3---3--3--3--3--2----------5--------2------3--3--3--3--2----------------|
A:----3---3-5------------------------5-3--------3--------------------------------5--3----|
E:---------------------------------------------------------------------------------------|

Chorus:     (Repeat once)
[ Tab from: http://www.guitartabs.cc/tabs/s/suicide_machines/no_face_btab.html ]
G:---------4---------2---5---------------4--------------|
D:2---5------2--3----------3---2---5------2--3--2--0-3--|
A:------------------------------------------------------|
E:------------------------------------------------------|

"I don't know where I went wrong and....":               (Repeat before *once)

G:-----------------------------------*---------------------------------------------|
D:----2--0--------------------------*-----------------------------------------7----|
A:0---------3--2--0----------2----*------------------------------------5--------5--|
E:----------------------3---3-----3*5----5----3---0---3----5----5------------------|




LISTEN TO THE SONG TO GET THE RIGHT BEAT.  IT'S REALLY NOT THAT HARD.  ENJOY!

Comments