Suicide Machines - Middle Way Chords & Tabs

 

Middle Way Chords & Tabs

Suicide Machines Chords & Tabs

Version: 1 Type: Tab 0 ratings
1 star 2 stars 3 stars 4 stars 5 stars
comments

Middle Way Tab

Ok this song is really kool, one of the best songs of the suicide machines.
The song is really easy. I think this tabs are right, it sounds very well to me. 
ENJOY

INTRO:
E:-------------------------------|
B:-------------------------------|
G:-7-7-7---------5-5-5-----------| 
D:-7-7-7--7-7-7--5-5-5--5-5-5----|
A:-5-5-5--7-7-7--3-3-3--5-5-5----| x4
E:--------5-5-5---------3-3-3----|

VERSE :
E:-------------------------------|
B:-------------------------------|
G:-5-5---------------------------|
D:-5-5-x-5-x-3-3-x-5-5-----------|
A:-3-3-x-5-x-3-3-x-5-5-----------| x4
E:-----x-3-x-1-1-x-3-3-----------|

PRE-CHORUS: ( all in palm mute EXCEPT  last part )
E:----------------------------------------------------
B:----------------------------------------------------
G:-----------------------------------5-5-5-5-5-5-5-5--
D:-3-3-3-3-3-3-3-3--5-5-5-5-5-5-5-5--5-5-5-5-5-5-5-5--
A:-3-3-3-3-3-3-3-3--5-5-5-5-5-5-5-5--3-3-3-3-3-3-3-3--
E:-1-1-1-1-1-1-1-1--3-3-3-3-3-3-3-3-------------------
   ........................ PM........................

  --------------------------|      
  --------------------------| 
  --------------------------|   
  -5-5-5-5-5-5-5-5----------|   
  -5-5-5-5-5-5-5-5----------| 
  -3-3-3-3-3-3-3-3----------|    
  .......PM.......

E:----------------------------------------------------
B:----------------------------------------------------
G:-----------------------------------5-5-5-5-5-5-5-5--
D:-3-3-3-3-3-3-3-3--5-5-5-5-5-5-5-5--5-5-5-5-5-5-5-5--
A:-3-3-3-3-3-3-3-3--5-5-5-5-5-5-5-5--3-3-3-3-3-3-3-3--
E:-1-1-1-1-1-1-1-1--3-3-3-3-3-3-3-3-------------------
   ........................ PM........................
[ Tab from: http://www.guitartabs.cc/tabs/s/suicide_machines/middle_way_tab.html ]
  ----------------|
  ----------------|
  -5-5-5-5-5------|
  -5-5-5-5-5------|
  -3-3-3-3-3------| 
  ----------------|
  ... NO PM ......

CHORUS:
E:----------------------------
B:----------------------------
G:-7-7-7-----5-5-5-5-5-5-5-5--
D:-7-7-7-7-5-5-5-5-5-5-5-5-5--                            
A:-5-5-5-7-5-3-3-3-3-3-3-3-3--
E:-------5-3------------------

  ------------------|
  ------------------|
  ------------------|
  -5-5-5-5-5-5-5-5--| 
  -5-5-5-5-5-5-5-5--| x4
  -3-3-3-3-3-3-3-3--|


SOLO:
E:-----------------------------------------------|
B:-----------------------------------------------|
G:-8-8-9-8-8-12-12-13-13--8-8-9-8-8-12-12--------|
D:----------------------------------------12-12--|
A:-----------------------------------------------|
E:-----------------------------------------------|

BRIDGE:
E:----------------------------------------------------
B:----------------------------------------------------
G:-----------------------------------7-7-7-7-7-7-7-7--
D:-5-5-5-5-5-5-5-5--7-7-7-7-7-7-7-7--7-7-7-7-7-7-7-7--
A:-5-5-5-5-5-5-5-5--7-7-7-7-7-7-7-7--5-5-5-5-5-5-5-5--
E:-3-3-3-3-3-3-3-3--5-5-5-5-5-5-5-5-------------------

  ------------------|
  ------------------|
  -5-5-5-5-5-5-5-5--|
  -5-5-5-5-5-5-5-5--|
  -3-3-3-3-3-3-3-3--| x3
  ------------------|

OUTRO:
E:----------------|
B:----------------|
G:-7-----7--------|
D:-7-----7--------|
A:-5-----5--------|
E:----------------|

ORDER OF THE SONG:
INTRO
VERSE
PRE-CHORUS
CHORUS
SOLO
VERSE
PRE-CHORUS
CHORUS
SOLO
BRIDGE
VERSE
PRE-CHORUS
CHORUS X2
SOLO
OUTRO

ok thats it!! its really easy and all the song is the same thing... if you find some errors
and you wanna make some corrections contact me at: ddavidd911@hotmail.com
PuNk NaRt
Comments