Suicide Machines - Islands Chords & Tabs

 

Islands Chords & Tabs

Suicide Machines Chords & Tabs

Version: 2 Type: Bass Tab 0 ratings
1 star 2 stars 3 stars 4 stars 5 stars
comments

Islands Bass Tab

Suicide Machines
Bass Tablature for Islands

Intro and after chorus:
G:----------------------------------------------------
D:3--3--3-3-3-3-3---3-3-------------------------------
A:--------------------------1--1--1-1-1-1-3---3-3-----
E:----------------------------------------------------

Intro continued:
G:------------------------------------------
D:3--3--3-3-3-3-3---3-3-----1---------------
A:------------------------------1---3-------
E:------------------------------------------

Verse: (Repeat 7x)
G:---------------------------
D:3--3--3--3-----------------
A:------------3--3-3-3-3-3-3-
E:---------------------------

"Everybody's telling me...":
G:----------------------------------------------
D:------------------------3--3--3--3------------
A:1--1--1--1--3--3--3--3--------------3--3--3--3
E:----------------------------------------------
[ Tab from: http://www.guitartabs.cc/tabs/s/suicide_machines/islands_btab_ver_2.html ]
Chorus: (Repeat 2x)
G:----------------------------------------------
D:3--3--3--3------------------------------------
A:------------3--3--3--3--1--1--1--1--3--3--3--3
E:----------------------------------------------

End of chorus:
G:------------------------------------
D:3-----------------------------------
A:------------1-----------3-----------
E:------------------------------------

Lead's into "they all think" part:
G:------------------
D:1-----------------
A:----1-------------
E:--------4---------

"They all think I'm mad": (repeat 1x)
G:------------------------------------------------------
D:1--1--1--1--1--1-1---1-1------------------------------
A:------------------------------------------------------
E:---------------------------4--4--4--4--4--4-4---4-4---

"They all think I'm mad" continued:
G:---------------------------------------------------
D:1--1--1--1--1--1-1---1-1---------------------------
A:---------------------------------------1--1--1--1--
E:---------------------------4--4--4--4--------------

Tabbed by Kevin (CallTR@aol.com)



Comments