Suicide Machines - Insecurities Chords & Tabs

 

Insecurities Chords & Tabs

Suicide Machines Chords & Tabs

Version: 2 Type: Bass Tab 0 ratings
1 star 2 stars 3 stars 4 stars 5 stars
comments

Insecurities Bass Tab

Suicide Machines
Bass Tablature for Insecurities

Intro and music after chorus: (Repeat 3x)
G:--------------------------
D:--------------------------
A:------7-7--5--5-5--4------
E:5--5------------------5--3

Verse: (Repeat 1x)
G:----------------------------------------------------6-----4-7-4
D:------------------------------------------------4-7---4-5------
A:--------5-5-5-5-------------------------5-5-5-5----------------
E:5-5-5-5---------2-2-2-2-3-3-3-3-5-5-5-5------------------------
[ Tab from: http://www.guitartabs.cc/tabs/s/suicide_machines/insecurities_btab_ver_2.html ]
Chorus:
G:-------------------------------------------------------------------------
D:------------6---6---------------------------------------------4---4------
A:4--4--7-7-7--------7--4--------------4---4--------2--2--5-5-5--------5--2
E:-------------------------2--2--5-5-5--------5--2-------------------------

Chorus 1st Ending:
G:------------------------
D:-----4--7--------6--9---
A:--5--------5--7--------7
E:------------------------

Chorus 2nd Ending:
G:------------------------
D:------------------------
A:5--5--5----7--7--7-5-4--
E:--------7--------------7

Bass Solo:
G:------------------------------------------------
D:---------------4----6-9-6-7--6--4---------------
A:---4--7--4--5-----7----------------7--5--4------
E:5-------------------------------------------7--5

Ending:
A:------7-7--5
E:5--5--------




Figured out and written by Fidget (hoepfner@lcm.macomb.lib.mi.us)



Comments