Suicide Machines - I Dont Wanna Hear It Chords & Tabs

 

I Dont Wanna Hear It Chords & Tabs

Suicide Machines Chords & Tabs

Version: 3 Type: Bass Tab

I Dont Wanna Hear It Bass Tab

-------------------------------------------------------------------------------
			I don't wanna hear it - Suicide Machines
-------------------------------------------------------------------------------

Tabbed By : Aaron (defectiveyouth1)
e-mail: aaronsmells26@yahoo.com

Tuning: standard

   Intro/bridge thing
G|----------------------|
D|----------------2-22--|
A|-----------2-22-------|
E|-2-02-012-------------|

   verse           (play 2x)
G|-------------------------------(11)9-98------|
D|---8-9(11)---9-------8-9(11)---------(11)9---|
A|-99------7-------99--------------------------|
E|--------------7------------------------------|
             (those are elevens (11's))
[ Tab from: http://www.guitartabs.cc/tabs/s/suicide_machines/i_dont_wanna_hear_it_btab_ver_3.html ]
   verse cont.     (play 2x)
G|-------------------------------9-8------------|
D|---8-9(11)---9-------8-9(11)-----(11)98-------|
A|-99------7-------99--------------------(11)---|
E|--------------7-------------------------------|

   chorus  (play 3x)         (play 1x)
G|------------------|-----------------|
D|-44442------------|-44442-----------|
A|-------2-44442----|-------2-4~~~~---|
E|---------------2--|-----------------|

   End (AHHHHHHHHH...FUCK!)
     G|-------------------|
     D|-------------------|
     A|-------------------|
     E|--2------------2---|

   This is an amazing cover, I almost like it better than the original Minor Threat
version. Almost. But then again, I'm a big Minor Threat fan. Anyways, have fun with
it, it's a really fun song to play.