Suicide Machines - I Dont Wanna Hear It Chords & Tabs

 

I Dont Wanna Hear It Chords & Tabs

Suicide Machines Chords & Tabs

Version: 1 Type: Bass Tab 0 ratings
1 star 2 stars 3 stars 4 stars 5 stars
comments

I Dont Wanna Hear It Bass Tab

Suicide Machines
Bass Tablature for I Don't Wanna Hear It

Intro and middle:
G:--------------------------
D:--------------------------
A:-------------2--2-2--7--7-
E:2-0-1-2--0-2--------------

"Hey, Hey!": (Repeat 1x)
G:-----------------------------------11--9--9-8----
D:----8--9-11-----9---------8--9-11-------------9-8
A:9------------7--------9--------------------------
E:------------------7------------------------------
[ Tab from: http://www.guitartabs.cc/tabs/s/suicide_machines/i_dont_wanna_hear_it_btab.html ]
Verse: (Repeat 1x)
G:-----------------------------------9--8-----------
D:----8--9-11-----9---------8--9-11--------11-9-8---
A:9------------7--------9-------------------------11
E:------------------7-------------------------------

Chorus: (Repeat 3x)
G:--------------------------
D:--------------------------
A:9-9-9-9-7-----------------
E:-----------7--9-9-9-9-7--2

Ending: (a.k.a "AHHHHHHHHHHHHH FUCK!)
E:2-----------------------2




Figured out and written by Fidget (hoepfner@lcm.macomb.lib.mi.us)




Comments