Suicide Machines - Hands Tied Chords & Tabs

 

Hands Tied Chords & Tabs

Suicide Machines Chords & Tabs

Version: 1 Type: Bass Tab

Hands Tied Bass Tab

I am only positive about the Chorus and the Verse so I'm not posting
the bridge. Help wage the war against bad tabs!

Chorus:
     
  G-------------1--------------------------------------------------|
  D-----1---4-------4---2---1-------2---1-----------4---2---1------| 
  A-2---------------------------4-----------4---2---------------4--|
  E----------------------------------------------------------------|

Verse:
[ Tab from: http://www.guitartabs.cc/tabs/s/suicide_machines/hands_tied_btab.html ]
       
  G-------------------------------------------------------------1--|
  D-2---1-------------------1---2-------1---2---4---1---2---4------| 
  A---------4---2---2---4-----------4------------------------------|
  E----------------------------------------------------------------|
   

  G----------------------------------------------------------------|
  D-2---1-------------------1---2-------1---2---4------------------| 
  A---------4---2---2---4-----------4-----------------------1---4--|
  E-------------------------------------------------2---4----------|