Suicide Machines - Green World Chords & Tabs

 

Green World Chords & Tabs

Suicide Machines Chords & Tabs

Version: 2 Type: Bass Tab 0 ratings
1 star 2 stars 3 stars 4 stars 5 stars
comments

Green World Bass Tab

'Green World' -- Bass Tab
Performed by The Suicide Machines
From the album (demo?)
Music and Lyrics by: The Suicide Machines
(c) 199? on ? Records
----------
Tabbed by: Fidget (hoepfner@lcm.macomb.lib.mi.us)
Ska/Punk/311 Bass Tab Archive -- http://members.aol.com/illihexill/index.html

Intro, Main Theme, "IT'S A GREEN WORLD!": 
===================================

G:-----------------------------------------------------------------------------
D:--------------------------------------0-2-0---------------------------------
A:-----3--3----2-2-------------3--3--------------------3--3----2-2--------
E:3-----------------2--2--3-----------------------------------------2--2-----

Short bridge to verse:
=================

G:-------------
D:--------------
A:3--3--5--5-
E:-------------

Verse:
======
[ Tab from: http://www.guitartabs.cc/tabs/s/suicide_machines/green_world_btab_ver_2.html ]
G:--------------------2-3-2-------------4-5-4------------2-3-2-------
D:5-5--5--5--5----2-5-------5-2---4-7-------7-4---2-5-------5-2--
A:--------------3------------------5-----------------3------------------
E:------------------------------------------------------------------------

"DEAD!" (hopefully you could figure this out for yourself)
==============================================

G:----------
D:----------
A:----------
E:3---------

Chorus: (Repeat 3x)
=================

G:------------------------------------------------------
D:------------------------------------------------------
A:--------------------------3--3--3--3--5--5--5--5--
E:3--3--3--3--1--1--1--1-----------------------------

Cool guitar/bass rif: (Repeat 3x)
===========================

G:-------------------------7-----7--454---454----
D:5--4-4---------------4------5---------5-----5--
A:--------3-3--5--5--------------------------------
E:---------------------------------------------------

"Reject your wealth..." (Repeat 1x)
=============================

G:------------------------------------------------------
D:-------------------------------------------------------
A:------------3--3--3--3--5--5--5--5--3--3--3--3--
E:3--3--3--3-------------------------------------------


Fidget (hoepfner@lcm.macomb.lib.mi.us)
Comments