Suicide Machines - Give Chords & Tabs

 

Give Chords & Tabs

Suicide Machines Chords & Tabs

Version: 2 Type: Bass Tab 0 ratings
1 star 2 stars 3 stars 4 stars 5 stars
comments

Give Bass Tab

   
  BTAB: Give
Artist: Suicide Machines
 Album: Battle Hymns
Author: Rattman (jratt0@hotmail.com)

**Padrino's Bass Tab Exclusive!**

This is as close as i can get, there is a lot of imporvising in this song.

Intro:
G--------------------
D-/7-6-4-2-/7-6-4-0~-
A--------------------
E--------------------

Verse:
G-------------------------------------------------------4----4-----4-
D-------2-4-4-2-0---------2-4-4-2-0-------2-2-----2-2-4---2-4--2-4---
A-0-2-4-----------2-0-2-4-----------2-0-2-----0-2--------------------
E--------------------------------------------------------------------
[ Tab from: http://www.guitartabs.cc/tabs/s/suicide_machines/give_btab_ver_2.html ]
Chorus:
"Look before you..."
G---------------4-2-----7---6---4---6-6-4-2-2--------
D-----------2-2-----2-0---0---0---0------------------
A-0-0-4-2-0--------------------------------------4-0-
E----------------------------------------------------

Bridge:
"Well there never was..."
G------------------------------------------------------------
D------------------------------------------------------------
A-5-4-2-0-5-4-2---5-4-2-0-5-4-2---5-4-2-0-5-4-2---5-4-2-0-2~-
E---------------0---------------0---------------0------------

[drum roll, than chorus played slower]

Outro:
"yeah..keep flying the flag..."
             repeats                    
G-----------------------2-----4-2-|-------2-------2-----
D-------2-------2-0-0-4---0-0-----|-0-0-4---0-0-4-------
A-0-0-4---0-0-4-------------------|-----------------0~~-
E---------------------------------|---------------------


Taken from Padrino's Bass Tab Archive: http://members.xoom.com/jszalma/
Comments