Suicide Machines - Ddt Chords & Tabs

 

Ddt Chords & Tabs

Suicide Machines Chords & Tabs

Version: 1 Type: Bass Tab 0 ratings
1 star 2 stars 3 stars 4 stars 5 stars
comments

Ddt Bass Tab

Song: DDT 
Band: Suicide Machines 
Album: Battle Hymns 
tabbed by: SpikeD 
  
  

intro 
G:--------------------------------------------------------------- 
D:--------------------------------------------------------------- 
A:------------3--3---------------------------------------------- 
E:--5--6--5----------------------------------------------------- 
[ Tab from: http://www.guitartabs.cc/tabs/s/suicide_machines/ddt_btab.html ]
verses 
G:--------------------------------------------------------------- 
D:--------------------------------------------------------------- 
A:---------------------3--3------------------------------------- 
E:--3--5--6--5--6--5------------------------------------------- 

chorus 
G:--------------------------------------------------------------- 
D:--------------------------------------------------------------- 
A:---------------1--1 // 4--4--4---------------1--1--4--4----- 
E:--3--3--1--1--------------------3--3--1--1------------------ 

(destroy our world...) 
G:--------------------------------------------------------------- 
D:--------------------------------------------------------------- 
A:--3--3--3--3----------------4--4--4--4---------------------- 
E:----------------4--4--4--4----------------5--5--5--5-------- 

My first real try at this so if it's wrong let me know....


Comments