Suicide Machines - Break The Glass Chords & Tabs

 

Break The Glass Chords & Tabs

Suicide Machines Chords & Tabs

Version: 1 Type: Tab 0 ratings
1 star 2 stars 3 stars 4 stars 5 stars
comments

Break The Glass Tab

   
By:Wei Li (my band's site: http://www.thekankles.tk)
Band:Suicide Machines
Song:Break the Glass

Intro:
e|-----------------|
B|-----------------|
G|------4--------4-|
D|2244224--2244224-|
A|2244222--2244222-|
E|002200---002200--|

e|-------------------------------------|
B|-------------------------------------|
G|------4-2-------4-2------------------|
D|2244224-2-2244224-2------------------|x2
A|2244222-0-2244222-0------------------|
E|002200----002200---------------------|

e|------------------------------------------------------------------|
B|--3-2-0-----------------------------------------------------------|
G|--------2-1-2-4-2-1------44---------------------------------------|
D|--------------------4-2--44---------------------------------------|x4
A|-------------------------22---------------------------------------|
E|------------------------------------------------------------------|


Verse:
e|-x7x7x5x5x5x5x5x5-----------------------|
B|-x9x9x7x7x5x5x5x5-----------------------|
G|-x9x9x7x7x6x6x6x6-----------------------|x4
D|-x9x9x7x7x7x7x7x7-----------------------|
A|-x7x7x5x5x7x7x7x7-----------------------|
E|----------5x5x5x5-----------------------|

e|-x5x5x5x5x5x5x5x5-----------------------|
B|-x7x7x7x7x5x5x5x5-----------------------|
G|-x7x7x7x7x6x6x6x6-----------------------|x3
D|-x7x7x7x7x7x7x7x7-----------------------|
A|-x5x5x5x5x7x7x7x7-----------------------|
E|----------5x5x5x5-----------------------|

[ Tab from: http://www.guitartabs.cc/tabs/s/suicide_machines/break_the_glass_tab.html ]
e|-x5x5x5x5\7X7X7X7X7----------------------|
B|-x7x7x7x7\9X9X9X9X9----------------------|
G|-x7x7x7x7\9X9X9X9X9----------------------|
D|-x7x7x7x7\9X9X9X9X9----------------------|
A|-x5x5x5x5\7X7X7X7X7----------------------|
E|-----------------------------------------|

Chorus:
e|----------------------------------------------|
B|----------------------------------------------|
G|-----------9999-------------------------------|
D|-9999-4444-9999-9999--------------------------|
A|-9999-4444-7777-9999--------------------------|
E|-7777-2222------7777--------------------------|


Bridge:
e|----------------------|-----------------------------|
B|5555--9-7-5-----------|-------5555\12-10-9----------|
G|4444--8-6-4-----------|X3-----4444\11-9--8----------|
D|2222--6-4-2-7777-9999-|-------2222\9--7--6-7777-9999|
A|------------7777-9999-|--------------------7777-9999|
E|------------5555-7777-|--------------------5555-7777|


e|---------|
B|---------|
G|-----9---|
D|-9-4-9-9-|
A|-9-4-7-9-|
E|-7-2---7-|

Outro:
e|X7X7X7X7X5X5\7X7----------|---------------------------------------------------|
B|X9X9X9X9X5X5\7X7----------|---------------------------------------------------|
G|X9X9X9X9X6X6\8X8----------|---------------------------------------------------|
D|X9X9X9X9X7X7\9X9----------|---6\9-----4-------6-----------------4--------6----|
A|X7X7X7X7X7X7\9X9----------|7-7----4-7-----6-9----7-776------4-7------6-9------|
E|--------X5X5\7X7----------|------5------7--------------97--5-------7----------|

Any questions? figure it out urself
Comments