Suicidal Tendencies - Wont Fall In Love Today Chords & Tabs

 

Wont Fall In Love Today Chords & Tabs

Suicidal Tendencies Chords & Tabs

Version: 1 Type: Tab 0 ratings
1 star 2 stars 3 stars 4 stars 5 stars
comments

Wont Fall In Love Today Tab

   
Band:  Suicidal Tendencies
Album: Suicidal Tendencies
Song:  Won't Fall In Love Today

Copyright (c)  (Virgin) (1983)
Version 1.0 - (08/06/05)

Transcribed By: Steve
Email:          stephen.elvidge1@ntlworld.com


.  - palm mute           /  - slide up to
\  - slide down to       ~  - vibrato
h  - hammer on           b  - Bend
p  - pull off            Suffixes for bend
t  - tap                 f  - full bend    h - half bend
ph - pinched harmonic    q  - quarter bend t - tap bend
*  - see comment         ^  - Hold bend    r release bend
x  - Stuccatto           ~  - vibrato bend
,  - slight palm mute    () - ghost note, sustained note
"  - tremolo note        <> - Trill

Tunning E A D G B E
 


 Riff A
[ Tab from: http://www.guitartabs.cc/tabs/s/suicidal_tendencies/wont_fall_in_love_today_tab.html ]
E----------------------------------|
B----------------------------------|
G-1111111111111111\9-9-9-9-9-9-9-9-|
D-1111111111111111\9-9-9-9-9-9-9-9-|
A-9-9-9-9-9-9-9-9-\7-7-7-7-7-7-7-7-|
E----------------------------------| Rpt

 Riff B

E---------------|
B---------------|
G-6-6-6-6-9\8/9-|
D-6-6-6-6-9\8/9-|
A-4-4-4-4-7\6/7-|
E---------------| Rpt 4 X

 Rpt Riff A 2 X
 Rpt Riff B 4 X
 Rpt Riff A 2 X

 Backing for guitar solo
 Rpt Riff B 4 X
 Rpt Riff A 2 X

 Rpt Riff B 4 X
 Rpt Riff A 2 X

 Ending

E------------------------------------------|
B------------------------------------------|
G-6-6-6-6-9\8/9-6-6-6-6-9\8/9-6------9\8\6-|
D-6-6-6-6-9\8/9-6-6-6-6-9\8/9-6------9\8\6-|
A-4-4-4-4-7\6/7-4-4-4-4-7\6/7-4------7\6\4-|
E------------------------------------------| 


END
Comments