Suicidal Tendencies - Suicyco Mania Chords & Tabs

 

Suicyco Mania Chords & Tabs

Suicidal Tendencies Chords & Tabs

Version: 1 Type: Tab 0 ratings
1 star 2 stars 3 stars 4 stars 5 stars
comments

Suicyco Mania Tab

   
Band:  Suicidal Tendencies
Album: How Will I Laugh Tomorrow When I Can't Even Smile Today
Song:  Suicyco Mania

Copyright (c)  (Virgin) (1988)
Version 1.0 - (06/04/05)

Transcribed By: Steve
Email:          stephen.elvidge1@ntlworld.com


.  - palm mute           /  - slide up to
\  - slide down to       ~  - vibrato
h  - hammer on           b  - Bend
p  - pull off            Suffixes for bend
t  - tap                 f  - full bend    h - half bend
ph - pinched harmonic    q  - quarter bend t - tap bend
*  - see comment         ^  - Hold bend    r release bend
x  - Stuccatto           ~  - vibrato bend
,  - slight palm mute    () - ghost note, sustained note
"  - tremolo note        <> - Trill

Tunning E A D G B E
 

 Intro

   [-PM]  PM  PM
E-----------------|
B-----------------|
G-----------------|
D-----------------|
A-2-----4---5---7-|
E-0-000-2-0-3-0-5-| Rpt 7 X

   [-PM]  PM  PM
E---------------------|
B---------------------|
G---------------------|
D---------------------|
A-2-----4---5---7-(7)-|
E-0-000-2-0-3-0-5-(5)-| 

 Riff A
  [--------PM-----------]
E-------------------------------------|
B-------------------------------------|
G-------------------------9\8\7-6\5\4-|
D-2-----------------------7\6\5-4\3\2-|
A-0-0-0-0-0-0-0-0-0-0-0-0-------------|
E-------------------------------------| Rpt 6 X

 Riff B
E--------------------------|
B--------------------------|
G----------4-----4--4---4--|
D-4-4--4-4-2-2-2-2--2-2-2--|
A-2-2--2-2---0-0------0----|
E--------------------------| rpt 3 X

E--------------------------|
B--------------------------|
G----------4-----4--4------|
D-4-4--4-4-2-2-2-2--2-2----|
A-2-2--2-2---0-0------0-2--|
E-----------------------0--|

    h[-------PM---------]         h[-------PM---------]
E-------------------------------------------------------------|
B-------------------------------------------------------------|
G-------------------------------------------------------------|
D-------------------------------------------------------2--4--|
A---4---------------------3-2p0---4---------------------0--2--|
E-0-2-2-2-2-2-2-2-2-2-2-2-------0-2-2-2-2-2-2-2-2-2-2-2-------|Rpt4X

      [-------PM--------]
E-----------------------------------|
B-----------------------------------|
G-----------------------------------|
D-2-4-4-------------------7/9-5--5--|
A-0-2-2-2-2-2-2-2-2-2-2-2-5/7-3--3--|
E-----------------------------------| Rpt 4 X

 Rpt Riff A 4 X
 Rpt Riff B 3 X

E---------------------------|
B---------------------------|
G----------4-----4--4-------|
D-4-4--4-4-2-2-2-2--2-2-----|
A-2-2--2-2---0-0------0-2-4-|
E-----------------------0-2-|

 Bass on own

 [----PM-----]
E--------------|
B--------------|
G--------------|
D--------------|
A-555555444444-|
E--------------|

 Main / Verse Riff
  [-PM-]       [-PM-]       [-PM-]       [-PM-][----PM----]
E-----------------------------------------------------------|
B-----------------------------------------------------------|
G-----------------------------------------------------------|
D---------------------5\4\2---------------------7-7-7-6-6-6-|
A-4----4/7\4---4----4-3\2-0-4----4/7\4---4----4-5-5-5-4-4-4-|
E-2-00-2/5\2-0-2-00-2-------2-00-2/5\2-0-2-00-2-------------|Rpt 4 X
 
 Riff C
 [-PM-]                [-----PM----]
E------------------------------------|
B------------------------------------|
G------------------------------------|
D-------2--4--44p3-----777777666666--|
A---0-4------------4-5-555555444444--|
E-2----------------------------------|

 Rpt Main Riff 4 X as backing for guitar solo. 
 Rpt Riff C

 [------------PM-------------]
E------------------------------|
B------------------------------|
G------------------------------|
D------------------------------|
A-4----4-4----4-4----4-4----4--|
E-2-00-2-2-00-2-2-00-2-2-00-2--| Rpt 3 X

 [--------PM----------]
E----------------------------|
B----------------------------|
G----------------------------|
D----------------------------|
A-4----4-4----4-4----4-4--4--|
E-2-00-2-2-00-2-2-00-2-2--2--|

     PM    [-PM]   [------PM-------]
E------------------------------------|
B------------------------------------|
G------------------------------------|
D------------------------------------|
A-8\7---8\7---5-2----4---4---4---4---|
E-6\5-0-6\5-0-3-0--0-2-0-2-0-2-0-2-0-| Rpt 8 X

   [-PM]  PM  PM
E-----------------|
B-----------------|
G-----------------|
D-----------------|
A-2-----4---5---7-|
E-0-000-2-0-3-0-5-| Rpt 8 X

       [-PM-]      [-PM-]     [-PM-]
E-------------------------------------------------|
B-------------------------------------------------|
G-------------------------------------------------|
D-7\6---------7\6---------7\6---------7\4/7/9\7\6-|
A-5\4--444440-5\4--444440-5\4--444440-5\4/5/7\5\4-|
E-------------------------------------------------|

       [-PM-]      [-PM-]     [-PM-]
E-------------------------------------------------|
B-------------------------------------------------|
G-------------------------------------------------|
D-7\6---------7\6---------7\6---------7\4/7/9-7\6-|
A-5\4--444440-5\4--444440-5\4--444440-5\4/5/7-5\4-|
E-------------------------------------------------|Rpt 3 X

      [--PM--]      [--PM--]     [--PM--]      [--PM--]
E-------------------------------------------------------|
B-------------------------------------------------------|
G-------------------------------------------------------|
D-2-4----------7-7-7---------2-4----------5-5-5---------|
A-0-2--2222220-5-5-5-5555550-0-2--2222220-3-3-3-3333330-|
E-------------------------------------------------------| Rpt

       [-PM-]      [-PM-]     [-PM-]
E-------------------------------------------------|
B-------------------------------------------------|
G-------------------------------------------------|
D-7\6---------7\6---------7\6---------7\4/7/9-7\6-|
A-5\4--444440-5\4--444440-5\4--444440-5\4/5/7-5\4-|
E-------------------------------------------------|Rpt 4 X
[ Tab from: http://www.guitartabs.cc/tabs/s/suicidal_tendencies/suicyco_mania_tab.html ]
      [--PM--]      [--PM--]     [--PM--]      [--PM--]
E-------------------------------------------------------|
B-------------------------------------------------------|
G-------------------------------------------------------|
D-2-4----------7-7-7---------2-4----------5-5-5---------|
A-0-2--2222220-5-5-5-5555550-0-2--2222220-3-3-3-3333330-|
E-------------------------------------------------------| Rpt

 Backing for guitar solo
 [----PM-----]   [------PM------]
E---------------------------------|
B---------------------------------|
G---------------------------------|
D---------------------------------|
A-----2-----2---4-----------------|
E-2-5---2-5---0-2-2-2-2-2-2-2-2-2-| Rpt

 [----PM-----]   [------PM------]
E---------------------------------|
B---------------------------------|
G---------------------------------|
D---------------------------------|
A-----2-----2---2-----------------|
E-2-5---2-5---2-0-0-0-0-0-0-0-0-0-|

 [----PM-----]   [------PM------]
E---------------------------------|
B---------------------------------|
G---------------------------------|
D---------------------------------|
A-----2-----2---4-----------------|
E-2-5---2-5---0-2-2-2-2-2-2-2-2-2-| Rpt 3 X

 [----PM-----]   [------PM------]
E---------------------------------|
B---------------------------------|
G---------------------------------|
D---------------------------------|
A-----2-----2---2-----------------|
E-2-5---2-5---2-0-0-0-0-0-0-0-0-0-|

 [----PM-----]   [------PM------]
E---------------------------------|
B---------------------------------|
G---------------------------------|
D---------------------------------|
A-----2-----2---4-----------------|
E-2-5---2-5---0-2-2-2-2-2-2-2-2-2-|

       [-PM-]      [-PM-]     [-PM-]
E-------------------------------------------------|
B-------------------------------------------------|
G-------------------------------------------------|
D-7\6---------7\6---------7\6---------7\4/7/9-7\6-|
A-5\4--444440-5\4--444440-5\4--444440-5\4/5/7-5\4-|
E-------------------------------------------------|Rpt 4 X


      [--PM--]      [--PM--]     [--PM--]      [--PM--]
E-------------------------------------------------------|
B-------------------------------------------------------|
G-------------------------------------------------------|
D-2-4----------7-7-7---------2-4----------5-5-5---------|
A-0-2--2222220-5-5-5-5555550-0-2--2222220-3-3-3-3333330-|
E-------------------------------------------------------| Rpt


 [----PM-----]   [PM-]   [--PM--]
E--------------------------------|
B--------------------------------|
G--------------------------------|
D--------------------------------|
A-----2-----2---4-----4----------|
E-2-5---2-5---0-2-2-2-2--2-2-2-2-|

 [----PM-----]   [------PM------]
E---------------------------------|
B---------------------------------|
G---------------------------------|
D---------------------------------|
A-----2-----2---4--------(4)------|
E-2-5---2-5---0-2--------(2)------|

 [----PM-----]   [------PM------]
E---------------------------------|
B---------------------------------|
G---------------------------------|
D---------------------------------|
A-----2-----2---2-----------------|
E-2-5---2-5---2-0-0-0-0-0-0-0-0-0-|

 [----PM-----]   [PM-]   [--PM--]
E--------------------------------|
B--------------------------------|
G--------------------------------|
D--------------------------------|
A-----2-----2---4-----4----------|
E-2-5---2-5---0-2-2-2-2--2-2-2-2-| Rpt 2

 [----PM-----]   [------PM------]
E---------------------------------|
B---------------------------------|
G---------------------------------|
D---------------------------------|
A-----2-----2---4--------(4)------|
E-2-5---2-5---0-2--------(2)------|

 [----PM-----]   [------PM------]
E---------------------------------|
B---------------------------------|
G---------------------------------|
D---------------------------------|
A-----2-----2---2-----------------|
E-2-5---2-5---2-0-0-0-0-0-0-0-0-0-|

 [----PM-----]   [PM-]   [--PM--]
E--------------------------------|
B--------------------------------|
G--------------------------------|
D--------------------------------|
A-----2-----2---4-----4----------|
E-2-5---2-5---0-2-2-2-2--2-2-2-2-|

 [--------------PM-----------------]
E-------------------------------------|
B-------------------------------------|
G-------------------------------------|
D-6-6-6-6-6-6-6-6-6-6-6-6-6-6-6-6-6-6-|
A-4-4-4-4-4-4-4-4-4-4-4-4-4-4-4-4-4-4-|
E-------------------------------------|

 Bass on own.

 Feedback
E---------------------|
B---------------------|
G---------------------|
D---------7\4/7/9/7\6-|
A---------5\4/5/7/5\4-|
E---------------------|

E-------------------------------------------------|
B-------------------------------------------------|
G-------------------------------------------------|
D-7\6---------7\6---------7\6---------7\4/7/9-7\6-|
A-5\4--444440-5\4--444440-5\4--444440-5\4/5/7-5\4-|
E-------------------------------------------------|Rpt 3 X

      [--PM--]      [--PM--]     [--PM--]      [--PM--]
E-------------------------------------------------------|
B-------------------------------------------------------|
G-------------------------------------------------------|
D-2-4----------7-7-7---------2-4----------5-5-5---------|
A-0-2--2222220-5-5-5-5555550-0-2--2222220-3-3-3-3333330-|
E-------------------------------------------------------| 

      [--PM--]      [--PM--]     [---------PM--------]      
E-------------------------------------------------------|
B-------------------------------------------------------|
G-------------------------------------------------------|
D-2-4----------7-7-7---------2-4----------5-5-5-5-5-5-\-|
A-0-2--2222220-5-5-5-5555550-0-2--2222220-3-3-3-3-3-3-\-|
E-------------------------------------------------------|

     PM    [-PM]   [------PM-------]
E------------------------------------|
B------------------------------------|
G------------------------------------|
D------------------------------------|
A-8\7---8\7---5-2----4---4---4---4---|
E-6\5-0-6\5-0-3-0--0-2-0-2-0-2-0-2-0-| Rpt 8 X
 

   [-PM]  PM  PM
E-----------------|
B-----------------|
G-----------------|
D-----------------|
A-2-----4---5---7-|
E-0-000-2-0-3-0-5-| Rpt 2 X


   [-PM]  PM  PM
E-------------------|
B-------------------|
G-------------------|
D-------------------|
A-2-----4---5---7-2-|
E-0-000-2-0-3-0-5-0-|



END
Comments