Suicidal Tendencies - Suicides The Alternative Chords & Tabs

 

Suicides The Alternative Chords & Tabs

Suicidal Tendencies Chords & Tabs

Version: 1 Type: Tab 0 ratings
1 star 2 stars 3 stars 4 stars 5 stars
comments

Suicides The Alternative Tab

   
Band:  Suicidal Tendencies
Album: Join The Army
Song:  Suicide's An Alternative, You'll Be Sorry

Copyright (c)  (Virgin) (1987)
Version 1.0 - 21/06/05

Transcribed By: Steve
Email:          stephen.elvidge1@ntlworld.com


.  - palm mute           /  - slide up to
\  - slide down to       ~  - vibrato
h  - hammer on           b  - Bend
p  - pull off            Suffixes for bend
t  - tap                 f  - full bend    h - half bend
ph - pinched harmonic    q  - quarter bend t - tap bend
*  - see comment         ^  - Hold bend    r release bend
x  - Stuccatto           ~  - vibrato bend
,  - slight palm mute    () - ghost note, sustained note
"  - tremolo note        <> - Trill

Tunning E A D G B E
 

 Intro

E----------------4---4444444/-------------------------|
B----------0--4------4444444/--ad lib slides etc------|
G-----------------------------------------------------|
D-------3---------------------------------------------|
A----2------------------------------------------------|
E-1---------------------------------------------------|

 Random shouting and guitar noise.

 Verse

E-------------|
B-------------|
G-------5\3-3-|
D-------5\3-3-|
A-3/5-5-3\1-1-|
E-1/3-3-------| Rpt 4 X

 Chorus
[ Tab from: http://www.guitartabs.cc/tabs/s/suicidal_tendencies/suicides_the_alternative_tab.html ]
E----------------------|
B----------------------|
G----------------------|
D-10/11\10-9/10\9-7-7--|
A-8-/9-\8--7/8-\7-5-5--|
E----------------------| Rpt 3 X

E---------|
B---------|
G-7-7-7-7-|
D-7-7-7-7-|
A-5-5-5-5-|
E---------|

 Rpt Verse Riff 8 X

 Rpt Verse Riff 4 X for guitar solo backing

 Rpt Verse Riff 8 X

 Rpt Chorus

 Rpt Verse and Chorus
                                      Pick scrape
E-----------------------------------------------------|
B-----------------------------------------------------|
G-5--5--3--3------------------------------------------|
D-5--5--3--3--5--------------(5)----------------------|
A-3--3--1--1--5--------------(5)-------------\-\------|
E-------------3--------------(3)--------------\-\-----|

E----------------------------------|
B----------------------------------|
G----------------------------------|
D----------------------------------|
A-2-2-6---5---7-7-2-2-5---6---5-5--|
E-0-0-4-0-3-0-5-5-0-0-3-0-4-0-3-3--| Rpt 20 X

                                 ~~~~~~~~~~~~~~~~~~
E-------------------------------------------------------|
B-------------------------------------------------------|
G---------------------------------------------------9\--|
D-2------------(2)----------------------------------9\--|
A-2------------(2)------------6/7-------(7)---------7\--|
E-0------------(0)--------------------------------------|




END
Comments