Suicidal Tendencies - Sorry Chords & Tabs

 

Sorry Chords & Tabs

Suicidal Tendencies Chords & Tabs

Version: 1 Type: Tab 0 ratings
1 star 2 stars 3 stars 4 stars 5 stars
comments

Sorry Tab

   
Band:  Suicidal Tendencies
Album: How Will I Laugh Tomorrow When I Can't Even Smile Today
Song:  Sorry?!

Copyright (c)  (Virgin) (1988)
Version 1.0 - (20/03/05)

Transcribed By: Steve
Email:          stephen.elvidge1@ntlworld.com


.  - palm mute           /  - slide up to
\  - slide down to       ~  - vibrato
h  - hammer on           b  - Bend
p  - pull off            Suffixes for bend
t  - tap                 f  - full bend    h - half bend
ph - pinched harmonic    q  - quarter bend t - tap bend
*  - see comment         ^  - Hold bend    r release bend
x  - Stuccatto           ~  - vibrato bend
,  - slight palm mute    () - ghost note, sustained note
"  - tremolo note        <> - Trill

Tunning E A D G B E
 

 Intro


E----------------------------------------------|
B----------------------------------------------|
G----------------------------------------------|
D-7--3-------0--3-------3--3-------5--3--------|
A-5--3-5p3p0-0--3-5p3p0-1--3-5p3p0-3--3-5p3p0--|
E----------------------------------------------|

E-------------------------------------------|
B-------------------------------------------|
G-------------------------------------------|
D-7--3-------0--3-------3--3-------5--(5)---|
A-5--3-5p3p0-0--3-5p3p0-1--3-5p3p0-3--(3)---|
E-------------------------------------------|


 Both guitars together with drums and bass
E----------------------------------------------|
B----------------------------------------------|
G----------------------------------------------|
D-7--3-------7--3-------3--3-------5--3--------|
A-5--3-5p3p0-5--3-5p3p0-1--3-5p3p0-3--3-5p3p0--|
E----------------------------------------------|

E-----------------------------------------------------------|
B-----------------------------------------------------------|
G-----------------------------------------------------------|
D-7--3-------7--3-------3--3-------5--3-------7--(7)--3-----|
A-5--3-5p3p0-5--3-5p3p0-1--3-5p3p0-3--3-5p3p0-5--(5)--3p1p0-|
E-----------------------------------------------------------|

 Verse

  [--------PM--------]  h [----PM----]        [PM]
E---------------------------------------------------|
B---------------------------------------------------|
G---------------------------------------------------|
D-3-3-3-3-3-3-3-3-3-3---3--3-3-3-3-3-3--------------|
A-1-1-1-1-1-1-1-1-1-1-0-1--1-1-1-1-1-1-5p3p1p0------|
E----------------------------------------------3p1--|

E-------------------------------------|
B-------------------------------------|
G-------------------------------------|
D---3-5-3-5-3---------3-5-3-5-3-5-5---|
A-5-3-5-3-5-3-5p3p0-5-3-5-3-5-3-3-3-0-|
E-5-----------------5-----------------|

  [--------PM--------]  h [----PM----]        [PM]
E---------------------------------------------------|
B---------------------------------------------------|
G---------------------------------------------------|
D-3-3-3-3-3-3-3-3-3-3---3--3-3-3-3-3-3--------------|
A-1-1-1-1-1-1-1-1-1-1-0-1--1-1-1-1-1-1-5p3p1p0------|
E----------------------------------------------3p1--|

E-------------------------------------|
B-------------------------------------|
G-------------------------------------|
D---3-5-3-5-3---------3-5-3-5-3-5-5---|
A-5-3-5-3-5-3-5p3p0-5-3-5-3-5-3-3-3-0-|
E-5-----------------5-----------------|

  [--------PM--------]  h [----PM----]        
E----------------------------------------------------|
B----------------------------------------------------|
G----------------------------------------------------|
D-3-3-3-3-3-3-3-3-3-3---3--3-3-3-3-3-3-5-----3-------|
A-1-1-1-1-1-1-1-1-1-1-0-1--1-1-1-1-1-1-3-----3-5p3p0-|
E----------------------------------------------------|
                                ~~~~~~~~~~~~~~~~~~~~~
E----------------------------------------------------|
B------------------------------<5>-------------------|
G----------------------------------------------------|
D----------------------------------------------------|
A----------------------------------------------------|
E----------------------------------------------------|
[ Tab from: http://www.guitartabs.cc/tabs/s/suicidal_tendencies/sorry_tab.html ]
 Rpt Main Riff 4 X for Chorus

 Chorus lead
   ~~~~~~~~~~~~~~   ~~~~~~~~~~~~~~~~~~~~~~~~~~~~~~~
E----------------------------------------------------|
B-----------------------------------------12fb--(15)-|
G-7----(7)--------12-----12fb12fb12fbr10-------------|
D----------------------------------------------------|
A----------------------------------------------------|
E----------------------------------------------------|Rpt 4 X
            ~~~~~~~~~~~~~~~~~~~~~~~~~~~~~~~~~~~
E----------------------------------------------------|
B-13p11p10-11----------(11)--------------------------|
G----------------------------------------------------|
D----------------------------------------------------|
A----------------------------------------------------|
E----------------------------------------------------|

 Rpt Verse and Chorus

 Interlude

                   [PM]
E-------------------------------------------------------------------|
B-------------------------------------------------------------------|
G-------------------------------------------------------------------|
D-7--\5/7----(7)-------3----(3)------7-----(7)----\-----------------|
A-5--\3/5----(5)----0--1----(1)------5-----(5)----\5--------3-------|
E--------------------------------------------------3--------1-------|


                   [PM]                [PM] [PM] [PM] [----PM-----]
E-------------------------------------------------------------------|
B-------------------------------------------------------------------|
G-------------------------------------------------------------------|
D-7----(7)-------------3----(3)-------2----2----2----2-3---3--2--3--|
A-5----(5)----------0--1----(1)-------0-00-0-00-0-00-0-1-0-1--0--1--|
E-------------------------------------------------------------------|

  [------PM------]
E------------------|
B------------------|
G------------------|
D-2--3-------------|
A-0--1--3333-4444--|
E------------------|

 Backing for guitar solo

  [---------------------------PM---------------------------------]
E-------------------------------------------------------------------|
B-------------------------------------------------------------------|
G-------------------------------------------------------------------|
D-7-7-7-7-7-7-7-7-7-7-7-7-7-7-7-7-3-3-3-3-3-3-3-3-3-3-3-3-3-3-3-3---|
A-5-5-5-5-5-5-5-5-5-5-5-5-5-5-5-5-1-1-1-1-1-1-1-1-1-1-1-1-1-1-1-1---|
E-------------------------------------------------------------------|

  [------------PM----------------]
E-------------------------------------------------------------------|
B---------------------------------8-8------8-----6-6------6---------|
G---------------------------------7-7------7-----5-5------5---------|
D-7-7-7-7-7-7-7-7-7-7-7-7-7-7-7-7-5-5------5-----3-3------3---------|
A-5-5-5-5-5-5-5-5-5-5-5-5-5-5-5-5-----------------------------------|
E-------------------------------------------------------------------|

  [---------------------------PM---------------------------------]
E-------------------------------------------------------------------|
B-------------------------------------------------------------------|
G-------------------------------------------------------------------|
D-7-7-7-7-7-7-7-7-7-7-7-7-7-7-7-7-3-3-3-3-3-3-3-3-3-3-3-3-3-3-3-3---|
A-5-5-5-5-5-5-5-5-5-5-5-5-5-5-5-5-1-1-1-1-1-1-1-1-1-1-1-1-1-1-1-1---|
E-------------------------------------------------------------------|

   [---PM---]  [--PM-]         [-------PM-------]
E------------------------------------------------|
B------------------------------------------------|
G------------------------------------------------|
D-2----------2--------------2--------------------|
A-0--0-0-0-0-0--0-0-0-1p0-1p0--0-0-0-0-3333-4444-|
E------------------------------------------------|
 
 Rpt backing for guitar solo replace the last part with..

E-----------|
B-----------|
G-2-3-3\2p0-|
D-2-3-3\2p0-|
A-0---------|
E-----------| Rpt 4 X

E-----------|
B-----------|
G-----------|
D-2-3-3\2p0-|
A-2-3-3\2p0-|
E-0---------| Rpt 4 X

 Rpt both riffs again
 Rpt Verse
 Rpt Chorus 8 X
 Ending is on  a D chord.
 





END
Comments